Spike Driver Blues

Du er her

Om guitarlektionen: Spike Driver Blues

En traditionel sang, også kendt som John Henry og indspillet af et hav af musikere bla. Johnny Cash. Denne udgave er ikke baseret på selve melodien, men på det akkompagnement som Mississippi John Hurt brugte til at synge efter. MJH gentager det samme fingerspils mønster i sangen 17 gange, men du kan nøjes med at spille det indtil du kan det. :)

Sådan spiller du: Spike Driver Blues

Advarsel
Dette fingerspilsakk. Vil komme til at drille dig! Det lyder bare så enkelt, og måske også kedeligt i længden men tro mig hvis du ikke har besejret alle de gængse fingerspilshurdler, og som et minimum kan spille Freight Train rytmisk korrekt,
så vil du få store vanskeligheder ved at spille det, men hvis du husker at tommel spiller bas (ja det kan ikke siges ofte nok) og at pegefinger og ringfinger (vekslende) spiller resten. Du kan selvfølgelig veksle imellem de klassiske PIMA, men så skal du huske at gøre de konsekvent.
Det anbefales dog ikke at du kun bruger tommel og pegefinger da du derved kan få vanskeligheder med at spille de hurtige 1/8 toner i melodien som følger bassen.
Tommelfingeren er den vigtigste. Vær ikke ked af at dit spil måske ikke lyder lige som MJHs, han havde ret tykke fingre, så nogen gange ramte han også den tættest liggende streng, da han vekslede imellem f.eks. 6. og 4. streng, men det hører til.
Merle Travis gjorde også det samme.

Del Spike Driver Blues lektionen på de sociale medier

Pdf

It appears your Web browser is not configured to display PDF files. Download adobe Acrobat eller klik her for at downloade PDF-filen.

Tabulatur(tabs)

     G                        G7           G                       
E||-----0--------|--3---------1---------|--3-------0--------------|
B||--3--------0--|----------------------|-------------------0-----|
G||--------------|----------------------|----------------3-----3--|
D||--------0-----|-------0---------0----|-------0-----------0-----|
A||--------------|----------------------|-------------------------|
E||--3-----------|--3---------3---------|--3----------3-----------|


                                                                        
-----------------------|------------------------|----------------------|
--0--------------------|---------------0--------|--3-------------------|
-----0-----------------|------------3--------0--|----------------------|
--------2---------2----|-------2----------0-----|-------0---------0----|
-----------------------|------------------------|------------2---------|
--3----------3---------|--3---------3-----------|--3-------------------|


                            G7                     G                       
----------------0--------|--1-------------------|----------------0--------|
----------3-----------3--|----------------------|----------3-----------0--|
-------------------------|----------------------|-------------------------|
-------0-----------0-----|-------0---------0----|-------0-----------0-----|
-------------------------|------------2---------|-------------------------|
--3----------3-----------|--3-------------------|--3----------3-----------|


            G7                                                           
--3---------1---------|--3-------0--------------|-----------------------|
----------------------|-------------------0-----|--0--------------------|
----------------------|----------------3-----3--|-----0-----------------|
-------0---------0----|-------0-----------0-----|--------2---------2----|
----------------------|-------------------------|-----------------------|
--3---------3---------|--3----------3-----------|--3----------3---------|


                                                                          
------------------------|----------------------|-------------------------|
---------------0--------|--3-------------------|----------------0--------|
------------3--------0--|----------------------|----------0h-3--------0--|
-------2----------0-----|-------0---------0----|-------0-----------0-----|
------------------------|------------2---------|-------------------------|
--3---------3-----------|--3-------------------|--3----------3-----------|


                                       16x        
-----3--------3--3--------|--3----------||------||
-----------0-----------0--|-------------||------||
--------------------------|------------*||------||
--------0-----------0-----|-------0----*||------||
--------------------------|-------------||------||
--3-----------3-----------|--3----------||------||

Facebook kommentarer

Genre

Country blues

Spillestil

Fingerpicking

mp3

Forfatter