Streets Of Laredo

Du er her

Om guitarlektionen: Streets Of Laredo

En iørefaldende melodi, som er blevet meget brugt i guitarbøger, pga. sin pædagogiske opbygning. Chet Atkins optrådte med denne sang, i et arrangement som minder en hel del om dette, ved Nashville Tour koncerterne, sammen med Bobby Bare, Jim Reeves, og Anita Kerr Quartet.

Sådan spiller du: Streets Of Laredo

Spillemæssigt er vi vel nok over i den klassiske afdeling, da vi lader venstrehånd gribe tonerne, og højre hånd følge med, uden blot at spille vekselbas. Læg mærke til at melodien afspejles i bassen. Dette arrangement er kort, men krævende så giv dig god tid.

Del Streets Of Laredo lektionen på de sociale medier

chet atkins

Tabulatur(tabs)

E||--3----3--------1--0--|----1----3----1----0--|----------------------|
B||----------------------|----------------------|----3----1----0-------|
G||-------0--------------|----------------------|-------------------0--|
D||----------------3--2--|----3----5----3----2--|----------------------|
A||----------------------|----------------------|----5----3----2-------|
E||----------------------|----------------------|-------------------3--|

---------------------|---------0----1----0--|---------------------|
--------1----0----1--|----3-----------------|----3----1----3------|
---------------------|----------------------|---------------------|
---------------------|---------2----3----2--|---------------------|
--------3----2----3--|----5-----------------|----5----3----2------|
---------------------|----------------------|---------------------|

--------3----3------|----1--0----1----3----|--1----0--------------|
--------------------|----------------------|------------3----1----|
-------------0------|----------------------|----------------------|
--------------------|----3--2----3----5----|--3----2--------------|
--------------------|----------------------|------------5----3----|
--------------------|----------------------|----------------------|

---------------------|-----------------0----|--1----0--------------|
--0-------------1----|--0----1----3---------|------------1----3----|
-------0-------------|----------------------|----------------------|
---------------------|----------------------|----------------------|
--2-------------3----|--2----3----5----2----|--3----2----3---------|
-------3-------------|----------------------|-----------------3----|

-------------------|------------------|------------------|------------------||
--1----------------|------------------|------------------|------------------||
-------------------|------------------|------------------|------------------||
-------------------|------------------|------------------|------------------||
--3----------------|------------------|------------------|------------------||
-------------------|------------------|------------------|------------------||

Facebook kommentarer

Genre

Country

mp3

Forfatter