This is my life - Kim Larsen - fingerspil

Du er her

Om guitarlektionen: This is my life - Kim Larsen - fingerspil

Kim Larsen og Gasolin lavede de fleste sange på dansk, men denne her evergreen (kan man vist kalde den efterhånden) skrev Larsen på engelsk.

Sådan spiller du: This is my life - Kim Larsen - fingerspil

Fingerpillet er meget enkelt. Kør med tommel på basstrenge, og hhv. pege, lang og ringfinger på de diskante strenge. Tommel skifter plads ved hvert akkordskift.
 

Del This is my life - Kim Larsen - fingerspil lektionen på de sociale medier

This is my life teaser

Pdf

It appears your Web browser is not configured to display PDF files. Download adobe Acrobat eller klik her for at downloade PDF-filen.

Melodi

Video

Tabulatur(tabs)

E ||----------0-----------0----|-----------3-----------3----|
B ||-------1-----------1-------|--------0-----------0-------|
G ||o---0-----------0----------|-----0-----------0----------|
D ||o--------------------------|----------------------------|
A ||-3-----------3-------------|----------------------------|
E ||---------------------------|--3-----------3-------------|

-----------0-----------0----|-----------1-----------1----|
--------1-----------1-------|--------1-----------1-------|
-----2-----------2----------|-----2-----------2----------|
----------------------------|--3-----------3-------------|
--0-----------0-------------|----------------------------|
----------------------------|----------------------------|

-----------0-----------0----|-----------3-----------1----|
--------1-----------1-------|--------0-----------1-------|
-----0-----------0----------|-----0-----------2----------|
----------------------------|--------------3-------------|
--3-----------3-------------|----------------------------|
----------------------------|--3-------------------------|

-----------0-----------0----|-----------0-----------0----|
--------1-----------1-------|--------1-----------1-------|
-----0-----------0----------|-----0-----------0----------|
----------------------------|----------------------------|
--3-----------3-------------|--3-----------3-------------|
----------------------------|----------------------------|

-----------0-----------0----|-----------3-----------3----|
--------1-----------1-------|--------0-----------0-------|
-----0-----------0----------|-----0-----------0----------|
----------------------------|----------------------------|
--3-----------3-------------|----------------------------|
----------------------------|--3-----------3-------------|

-----------0-----------0----|-----------1-----------1----|
--------1-----------1-------|--------1-----------1-------|
-----2-----------2----------|-----2-----------2----------|
----------------------------|--3-----------3-------------|
--0-----------0-------------|----------------------------|
----------------------------|----------------------------|

-----------0-----------0----|-----------3-----------1----|
--------1-----------1-------|--------0-----------1-------|
-----0-----------0----------|-----0-----------2----------|
----------------------------|--------------3-------------|
--3-----------3-------------|----------------------------|
----------------------------|--3-------------------------|

-----------0-----------0----|-----------0-----------0----|
--------1-----------1-------|--------1-----------1-------|
-----0-----------0----------|-----0-----------0----------|
----------------------------|----------------------------|
--3-----------3-------------|--3-----------3-------------|
----------------------------|----------------------------|

-----------0-----------0----|-----------0-----------0----|
--------1-----------1-------|--------0-----------0-------|
-----2-----------2----------|-----1-----------1----------|
----------------------------|----------------------------|
--0-----------0-------------|----------------------------|
----------------------------|--0-----------0-------------|

-----------1-----------1----|-----------0-----------0----|
--------1-----------1-------|--------1-----------1-------|
-----2-----------2----------|-----0-----------0----------|
--3-----------3-------------|----------------------------|
----------------------------|--3-----------3-------------|
----------------------------|----------------------------|

-----------0-----------0----|-----------3-----------1----|
--------1-----------1-------|--------0-----------1-------|
-----2-----------2----------|-----0-----------2----------|
----------------------------|--------------3-------------|
--0-----------0-------------|----------------------------|
----------------------------|--3-------------------------|

-----------0-----------0----|-----------0-----------0---||
--------1-----------1-------|--------1-----------1------||
-----0-----------0----------|-----0-----------0--------o||
----------------------------|--------------------------o||
--3-----------3-------------|--3-----------3------------||
----------------------------|---------------------------||

-----------0-----------0----||
--------1-----------1-------||
-----2-----------2----------|| 
-3-----------3--------------||
----------------------------||
----------------------------||

Facebook kommentarer

Genre

Danske sange

Spillestil

Fingerspils spillestilen

Forfatter