Tim Christensens fingerspil til Happy Xmas War is Over

Du er her

Om guitarlektionen: Tim Christensens fingerspil til Happy Xmas War is Over

Melodien Happy Xmas er en traditionel julesang med tekst af John Lennon og Yoko Ono. I denne lektioner gennemgår vi det fingerspil som danske Tim Christensen bruger på sine youtube videoer.  Hvor han formår at synge rytmisk og rent sammenholdt med et kompliceret og ikke mindst vellydende fingerspil, der nærmest lyder som et helt orkester. Bemærk at fingerspillet er i G dur og i almindelig stemning. Det på trods af, at Tim spiller med Capop på 5. bånd. Det skyldes at han har stemt guitaren ned. Til lektionen får du både tabs og en youtube hvor guitarunderviseren Fridrikur Ellefsen spiller og gennemgår Tim Christensen's fingerspils akkompagnement.

Sådan spiller du: Tim Christensens fingerspil til Happy Xmas War is Over

For at kunne mestre fingerspillet til denne dejlige melodi er det vigtigt at du kender til grundlæggende ting som vekselbas på basstrengene. Fingerspillet bliver nemlig båret af bastpmer i 8dels taktslag. Der er 4 8dele indenfor hver takt. På en G akkorder bliver der spillet på 6. og 4. streng, og på Am på 5. og 4. Der er intet revolutionerende hvad det angår. Det er vigtigt at man ikke dæmper bassen.
Det er også især vigtigt at man spiller både bas og diskanttoner på første slag i hver takt for at kunne følge TC's fingerspil. Hvilke toner det drejer sig om kan du se i detaljer i tabulaturen.

For kendere af fingerspils spillemåden er det nemt at se at Tim Christensen har været meget inspireret af Kansa's Dust In the Wind og måske også lånt lidt fra Fleetwood Mac's Never Going Back Again.
Bemærk dog at tabulaturen er baseret på hans fingerspil, men det er frit fortolket og mere ment som en hjælp til at få dig startet til at kunne spille sammen med Tim's optagelse på nettet. Der kan være afvigelser i det faktiske fingerspil og det fingerspil som TC bruger, men akkorderne skifter de rigtige steder og pulsen samt bastonerne er rigtige. 

Del Tim Christensens fingerspil til Happy Xmas War is Over lektionen på de sociale medier

war is over

Pdf

It appears your Web browser is not configured to display PDF files. Download adobe Acrobat eller klik her for at downloade PDF-filen.

Melodi

happy xmas war is over

Video

Tabulatur(tabs)

E ||---------------------------------------------------|
B ||-------0L-0L-0--------------------0L-0L-0----------|
G ||o---------------0--------2--------------2----------|
D ||o------0-----------0-----------0-----------0-------|
A ||---------------------------------------------------|
E ||-3-----------3-----------3-----------3-------------|


---------------------------------------------------||
--1--------------1--------0--------------0---------||
-----------0-----------------------0--------------o||
--------0-----------0-----------0-----------0-----o||
---------------------------------------------------||
--3-----------3-----------3-----------3------------||


----------------------------------------------------||
--1--------------1--------0-------------------------||
-----------0----------------------------------------||
--------0-----------0-------------------------------||
----------------------------------------------------||
--3-----------3-----------3-------------------------||


---------------------------------------------------|
-------0L-0L-0--------------------0L-0L-0----------|
o---------------0--------2--------------2----------|
o------0-----------0-----------0-----------0-------|
---------------------------------------------------|
-3-----------3-----------3-----------3-------------|


----------------------------------------------------|
--1--------------1--------0--------------0----------|
-----------0-----------------------0----------------|
--------0-----------0-----------0-----------0-------|
----------------------------------------------------|
--3-----------3-----------3-----------3-------------|


----------------------------------------------------|
--0--------------0--------3--------------3----------|
-----------2----------------------------------------|
--------2-----------2-----------2-----------2-------|
--0-----------0-----------0-----------0-------------|
----------------------------------------------------|


----------------------------------------------------|
--1--------------1--------3--------------3----------|
-----------2----------------------------------------|
--------2-----------2-----------2-----------2-------|
--0-----------0-----------0-----------0-------------|
----------------------------------------------------|


----------------------------------------------------|
--0--------------0--------3--------------3----------|
-----------2----------------------------------------|
--------0-----------0-----------0-----------0-------|
----------------------------------------------------|
--2-----------2-----------2-----------2-------------|


----------------------------------------------------|
--1--------------1--------3--------------3----------|
-----------2----------------------------------------|
--------0-----------0-----------0-----------0-------|
----------------------------------------------------|
--2-----------2-----------2-----------2-------------|


----------------------------------------------------|
--------0L-0L-0--------------------0L-0L-0----------|
-----------------0--------2--------------2----------|
--------0-----------0-----------0-----------0-------|
----------------------------------------------------|
--3-----------3-----------3-----------3-------------|


----------------------------------------------------|
--1--------------1--------0--------------0----------|
-----------0-----------------------0----------------|
--------0-----------0-----------0-----------0-------|
----------------------------------------------------|
--3-----------3-----------3-----------3-------------|


----------------------------------------------------|
--------0--------0----------------------------------|
-----------0--------------2--------------2----------|
--------0-----------0-----------0-----------0-------|
----------------------------------------------------|
--3-----------3-----------3-----------3-------------|


----------------------------------------------------|
--1--------------1--------0--------------0----------|
-----------0----------------------------------------|
--------0-----------0-----------0-----------0-------|
----------------------------------------------------|
--3-----------3-----------3-----------3-------------|


----------------------------------------------------|
--0--------------0--------3--------------3----------|
-----------2----------------------------------------|
--------2-----------2-----------2-----------2-------|
--0-----------0-----------0-----------0-------------|
----------------------------------------------------|


----------------------------------------------------|
--1--------------1--------3--------------3----------|
-----------2----------------------------------------|
--------2-----------2-----------2-----------2-------|
--0-----------0-----------0-----------0-------------|
----------------------------------------------------|


----------------------------------------------------|
--0--------------0--------3--------------3----------|
-----------2----------------------------------------|
--------0-----------0-----------0-----------0-------|
----------------------------------------------------|
--2-----------2-----------2-----------2-------------|


----------------------------------------------------|
--1--------------1--------3--------------3----------|
-----------2----------------------------------------|
--------0-----------0-----------0-----------0-------|
----------------------------------------------------|
--2-----------2-----------2-----------2-------------|


----------------------------------------------------|
--0--------------0----------------------------------|
-----------0--------------2--------------2----------|
--------0-----------0-----------0-----------0-------|
----------------------------------------------------|
--3-----------3-----------3-----------3-------------|


----------------------------------------------------|
--1--------------1--------0--------------0----------|
-----------0----------------------------------------|
--------0-----------0-----------0-----------0-------|
----------------------------------------------------|
--3-----------3-----------3-----------3-------------|


----------------------------------------------------|
--1--------------1--------0--------------0----------|
-----------0----------------------------------------|
--------2-----------2-----------2-----------2-------|
--3-----------3-----------3-----------3-------------|
----------------------------------------------------|


----------------------------------------------------|
--3--------------3--------1--------------1----------|
-----------0----------------------------------------|
--------2-----------2-----------2-----------2-------|
--3-----------3-----------3-----------3-------------|
----------------------------------------------------|


--2--------------2--------2-------------------------|
-----------1-----------------------1-----1----------|
--------2-----------2-----------2-----------2-------|
--0-----------0-----------0-----------0-------------|
----------------------------------------------------|
----------------------------------------------------|


--2--------------2--------2-------------------------|
-----------1-----------------------1-----1----------|
--------2-----------2-----------2-----------2-------|
--0-----------0-----------0-----------0-------------|
----------------------------------------------------|
--------------------------------------------0-------|


----------------------------------------------------|
--1--------------1--------0--------------0----------|
-----------2----------------------------------------|
--------2-----------2-----------2-----------2-------|
--0-----------0-----------0-----------0-------------|
----------------------------------------------------|


----------------------------------------------------|
--3--------------3-----------------3----------------|
-----------0--------------------2-----------0-------|
--------2-----------2-----0-----------2L-2----------|
--3-----------3-------------------------------------|
----------------------------------------------------|


----------------------------------------------------|
--0--------------0----------------------------------|
-----------0--------------2--------------2----------|
--------0-----------0-----------0-----------0-------|
----------------------------------------------------|
--3-----------3-----------3-----------3-------------|


---------------------------------------------------|||
--1--------------1--------0--------------0---------|||
-----------0--------------------------------------o|||
--------0-----------0-----------0-----------0-----o|||
---------------------------------------------------|||
--3-----------3-----------3-----------3------------|||

Facebook kommentarer

Genre

Julesange

Spillestil

fingerspil

Taktart

4/4

Forfatter