Tuxedo Junction

Du er her

Dette er vel Jazz-swing med blues feel. Teksten er rågrineren for de som har lidt historisk omtanke.

Sådan spiller du: Tuxedo Junction

Vigtigt er det at du spiller bas og tema så de svinger sammen, her er der tre ting du kan gøre:

  1. spille bas og melodi for sig evt kan i være 2 guitarer
  2. spille sammen med programmet tabledit og sætte hastigheden ned.
  3. syng og spil klodserne (læs harmonier)
Jazz guitar

Tabulatur(tabs)

TablEdited by Finn Bjerke
Tuning : E A D G B E     Time Signature: 4/4

 |       |       |       |        |       |       |       |        
|--------------------------------|0-----------------------0---3---|
|------------------------0---2---|0-----------3-------3-----------|
|------------1-----------1-------|1-----------1-------1-----------|
|----2-------2-------2---2-------|----2-------2-------2-------2---|
|--------------------2-----------|--------------------------------|
|0-------2-------3-------4-------|0-------2-------3-------4-------|

 |       |       |       |        |       |       |       |        
|3-------0-----------------------|0-----------------------0---3---|
|2-----------0-------0---0---2---|0-----------3-------3-----------|
|2-----------2-------2-----------|1-----------1-------1-----------|
|------------------------2-------|2---2-------2-------2-----------|
|0-------4-------2---------------|2-------------------------------|
|--------------------------------|0-------2-------3-------4-------|

 |       |       |       |        |       |       |       |        
|3-------0-----------------------|0-----------------------0---3---|
|2-----------0-------0---0---2---|0-----------3-------3-----------|
|2-----------2-------2-----------|1---1-------1-------1-----------|
|------------------------2-------|----2-------2-------2-----------|
|0-------4-------2---------------|------------2-------2-----------|
|--------------------------------|0-------2-------3-------4-------|

 |       |       |       |        |       |       |       |        
|3-------0---9-------0---0-------|3-------0-------7---7---0---0---|
|2-----------8-------0-----------|2-----------0---7---7-------0---|
|2---2-------9---------------12--|2---------------8---------------|
|--------------------------------|----------------9---------------|
|0-------4-----------------------|0-------4-----------------------|
|----------------6-------7-------|----------------7-------0-------|

 |       |       |       |        |       |       |       |        
|--------------------------------|0-----------------------0---3---|
|------------3-------3---0---2---|0-----------3-------3-----------|
|------------1-------1---1-------|1-----------1-------1-----------|
|----2-------2-------2---2-------|----2-------2-------2-------2---|
|--------------------2-----------|--------------------------------|
|0-------2-------3-------4-------|0-------2-------3-------4-------|

 |       |       |       |        |       |       |       |        
|3-------0-----------------------|0-----------------------0---3---|
|2-----------0-------0---0---2---|0-----------3-------3-----------|
|2-----------2-------2-----------|1-----------1-------1-----------|
|------------------------2-------|2---2-------2-------2-----------|
|0-------4-------2---------------|2-------------------------------|
|--------------------------------|0-------2-------3-------4-------|

 |       |       |       |        |       |       |       |        
|3-------0-----------------------|0-----------------------0---3---|
|2-----------0-------0---0---2---|0-----------3-------3-----------|
|2-----------2-------2-----------|1---1-------1-------1-----------|
|------------------------2-------|----2-------2-------2-----------|
|0-------4-------2---------------|------------2-------2-----------|
|--------------------------------|0-------2-------3-------4-------|

 |       |       |       |        |       |       |       |        
|3-------0---9-------0---0-------|3-------0---7-------7---0---0---|
|2-----------8-------0-----------|2-----------10------7-------0---|
|2---2-------9-------1-------12--|2-----------8-------------------|
|--------------------------------|--------------------------------|
|0-------4-----------------------|0-------4-----------------------|
|----------------6-------7-------|----------------7-------0-------|

 |       |       |       |        |       |       |       |        
|------------------------3---2---|0-------0---0-------------------|
|------------3-------3-----------|------------3-------3-----------|
|----1-------1-------1-----------|------------1-------1-----------|
|----2-------2-------2-----------|----2-------2-------2-------2---|
|----------------2-------2-------|----------------2-------4-------|
|0-------4-----------------------|0-------4-----------------------|

 |       |       |       |        |       |       |       |        
|--------------------3---2---0---|0---0-------0-------------------|
|------------3-------3-----------|2---2-------2-------2-----------|
|------------1-------1-----------|----0-------0-------0-------2---|
|----2-------2-------2-----------|----------------2-------4-------|
|----2-----------2-------4-------|0-------4-----------------------|
|0-------4-----------------------|--------------------------------|

 |       |       |       |        |       |       |       |        
|--------------------0---2---0---|0-------0---0-------------------|
|----2-------2-------2-------2---|------------3-------3-----------|
|----0-------0-------0-----------|------------1-------1-----------|
|----------------2-------4-------|----2-------2-------2-------2---|
|0-------4-----------------------|----------------2-------4-------|
|--------------------------------|0-------4-----------------------|

 |       |       |       |        |       |       |       |        
|--------------------3---2---0---|0---------------4-------4-------|
|------------3-------3-----------|0---------------5---5-------3---|
|------------1-------1-----------|1-----------4---4---4-------1---|
|----2-------2-------2-----------|----2-----------------------2---|
|----2-----------2-------4-------|----------------4-------4-------|
|0-------4-----------------------|----0---0-----------4-----------|

 |       |       |       |        |       |       |       |        
|5-----------5---7---7-----------|------------------------3---2---|
|5-----------5---10--7-----------|------------3-------3-----------|
|6-----------6---8---------------|----1-------1-------1-----------|
|7---------------9---------------|----2-------2-------2-----------|
|----4---------------------------|----------------2-------2-------|
|--------5---6---7-------0---0---|0-------4-----------------------|

 |       |       |       |        |       |       |       |        
|0-------0---0-------------------|--------------------3---2---0---|
|------------3-------3-----------|------------3-------3-----------|
|------------1-------1-----------|------------1-------1-----------|
|----2-------2-------2-------2---|----2-------2-------2-----------|
|----------------2-------4-------|----2-----------2-------4-------|
|0-------4-----------------------|0-------4-----------------------|

 |       |       |       |        |       |       |       |        
|0---0-------0-------------------|--------------------0---2---0---|
|2---2-------2-------2-----------|----2-------2-------2-------2---|
|----0-------0-------0-------2---|----0-------0-------0-----------|
|----------------2-------4-------|----------------2-------4-------|
|0-------4-----------------------|0-------4-----------------------|
|--------------------------------|--------------------------------|

 |       |       |       |        |       |       |       |        
|0-------0---0-------------------|--------------------3---2---0---|
|------------3-------3-----------|------------3-------3-----------|
|------------1-------1-----------|------------1-------1-----------|
|----2-------2-------2-------2---|----2-------2-------2-----------|
|----------------2-------4-------|----2-----------2-------4-------|
|0-------4-----------------------|0-------4-----------------------|

 |       |       |       |        |       |       |       |        
|0---------------4-------4-------|5-----------5---7---7-----------|
|0---------------5---5-------3---|5-----------5---10--7-----------|
|1-----------4---4---4-------1---|6-----------6---8---------------|
|----2-----------------------2---|7---------------9---------------|
|----------------4-------4-------|----4---------------------------|
|----0---0-----------4-----------|--------5---6---7-------0---0---|



Created with TablEdit http://www.tabledit.com/

Sangtekst

Sang tekst:
Boop bop, Boop Bop
Boop bop, Boop Bop
Boop bop, Boop Bop
Boop bop, Boop Bop

Way down South, in Birmingham
I mean South, in Alabam'
There's a place 
Where people go to dance the night away

It's a junction
Where the town folk meet
At each function in their best they'll greet you

Sax solo

Scat solo

Way down South, in Birmingham
I mean South, in Alabam'
That old place 

Boop bop, Boop Bop
Boop bop, Boop Bop
Boop bop, Boop Bop
Boop bop, Boop Bop

Way down South, in Birmingham
I mean South, in Alabam'
'Ans old place
Where people go to dance the night away
They all drive or walk for miles 
To get blues - that southern style,
So blue - it'll make you want to dance the night away
Tuxedo Junction - where I want to be

 

Facebook kommentarer

Genre

Blues

Spillestil

Fingerpicking

mp3

Forfatter

Fridrikur