Yas Yas Ragtime Blues

Du er her

Om guitarlektionen: Yas Yas Ragtime Blues

En kliché ragtime blues taget fra Blind Boy Fuller skuffen. Rimelig at spille, når man først har stavet sig igennem den. .

Sådan spiller du: Yas Yas Ragtime Blues

Denne dejlige melodi skal helst ikke spilles for hurtigt. Der er delte meninger om det, men ragtime bør spilles i et moderat tempo og ikke for hurtigt efter min mening.
Højre hånd
Veksl imellem tommel og pegefinger. Pegefinger må gerne strumme i opadgående retning ved akkorder og ikke nedadgående. Prøv som en øvelse at spille en c akkord med tommel og pegefinger. Først tommel på (5) og så pegefinger med strum på (1) og (2) og (3). Bliv ved med at spille sådan. Så har du idéen til hvordan man spiller denne ragtime blues og en del andre, dvs. i højre hånd.

Del Yas Yas Ragtime Blues lektionen på de sociale medier

Pdf

It appears your Web browser is not configured to display PDF files. Download adobe Acrobat eller klik her for at downloade PDF-filen.

Tabulatur(tabs)

(Capo 2)

E||---------------------||------0-----------0--------|-------5----3---------|
B||---------------------||---1--------3-----------1/-|--2----2----2---------|
G||---------------------||*--0-----0--1--------1--1/-|--2----2---------2----|
D||---------------------||*--2-----2-----0-----0-----|--2----2---------2----|
A||-----------0----2----||---3-----------2-----------|--0---------0---------|
E||------3--------------||---------------------------|------------0---------|

-----2--------1--0-------|------------------------||-----2--------2---------|
-----3--------0--0-------|--1------------0--------||-----3-----3-------3----|
-----2--2--0--------0----|-------0-------0--0----*||--------------2---------|
--------0-----------0----|--2----2----------0----*||--------0----------0----|
--------------2----------|--3---------------------||------------------------|
--2-----------3----------|------------3-----------||--2-----------2---------|

--1--------3-----1-------|-----0--------0--------0--|-----3--------3--------3--|
--0--------0-----0-------|--------1--------1--------|--------1--------1--------|
-----0--0-----------0----|-----------0--------0-----|--3--------3--------3-----|
--------0-----------0----|--2-----------------------|--2-----------------------|
--2-----------2----------|--3-----------------------|--------------------------|
--3-----------3----------|--------------------------|--------------------------|

-----1--------1--------1--|-----2-------2----2----||------------------0--------|
--------1--------1--------|-----1-------1----1----||---1--1-----3-----------1/-|
--2--------2--------2-----|-----1-------1----1----||*--0--0-----1-----------1/-|
--3-----------------------|--1-------1------------||*--------2-----------0-----|
--------------------------|-----------------------||---3-----------2-----------|
--------------------------|-----------------------||---------------------------|

-------5----3---------|-----2--------1--0-------|-----------------------|
--2----2----2---------|-----3--------0--0-------|--1------------0-------|
--2-------------------|-----2-----0-------------|---------------0--0----|
-------2---------2----|--------0-----------0----|-------2----------0----|
--0-------------------|-------------------------|--3--------------------|
------------0---------|--2-----------3----------|------------3----------|

-----0-----------0--------|-------5----3---------|-----2--------1--0-------|
--1--------3-----------1/-|--2----2----2---------|-----3--------0--0-------|
--0--------1-----------1/-|--2-------------------|-----2-----0-------------|
--------2-----------0-----|-------2---------2----|--------0-----------0----|
--3-----------2-----------|--0-------------------|-------------------------|
--------------------------|------------0---------|--2-----------3----------|

---------------3--------||-----2--------2---------|--1--------3-----1-------|
--1------------0--------||-----3-----3-------3----|--0--------0-----0-------|
------------------0----*||--------------2---------|-----0-------------------|
-------2----------0----*||--------0----------0----|--------0-----------0----|
--3---------------------||------------------------|-------------------------|
------------3-----------||--2-----------2---------|--3-----------3----------|

--0-------0----------|--3-------3----------|--1-------1----------|
--1-------1----------|--1-------1----------|--1-------1----------|
--0-------0------0---|--3-------3------0---|--2-------2------0---|
--2-------2----------|--2-------2----------|--3-------3----------|
--3-------3----------|--3-------3----------|--3-------3----------|
---------------------|---------------------|---------------------|

--2-------2---------|-----------------0--------|-------5----3---------|
--1-------1---------|--1--1-----3-----------1/-|--2----2----2---------|
--1-------1---------|--0--0-----1-----------1/-|--2-------------------|
--1-------1---------|--------2-----------0-----|-------2---------2----|
--------------------|--3-----------2-----------|--0-------------------|
--------------------|--------------------------|------------0---------|

-----2--------1--0-------|------------------------|-------------------|------||
-----3--------0--0-------|--1---------------------|--1----------------|------||
-----2-----0-------------|------------------2-----|--0----------------|------||
--------0-----------0----|-------2-------5-----5--|--2----------------|------||
-------------------------|--3---------------------|--3----------------|------||
--2-----------3----------|------------3-----------|-------------------|------||

Facebook kommentarer

Genre

Ragtime

Spillestil

Fingerpicking

Midi

mp3

Forfatter