Husk tonerne med fingrene

Du er her

Det drejer sig om at kende tonerne på gribebrættet. I det mindste på de første 5 bånd.

Tonerne er:

  • # = Fis og Gis (dvs ½ tone op fra F og ½ tone op fra G)
  • Bånd: (e)1-2-3-4-5
  • Toner: :F-#-G-#-A
  • (b)1-2-3-4-5
  • C-#-D-#-E
  • (g)1-2-3-4-5
  • #-A-#-B-C
  • osv...

Læg mærke til at vi ikke behøver huske på "#" og "b", for at gøre det nemt for os selv så undlader vi dem og tænker i stedet:

  • C -forhøjet C - D - Forhøjet D

- osv i stedet for:

  • C- C# - D - D#

Vi kan også nøjes med at kende de toner hvor der ikke er # og b:

  • (b)1-2-3-4-5
  • C ? D ? E

Det er også vigtigt at kende de typisk 1 - 5. positions toners naboer på de diverse strenge.

På det vedlagte tabs eksempel kan vi se hvordan de samme toner spilles igen på nogle andre strenge end "normalt"

E||--------------|--------------|----------|----------|--1---1---|--0---0---|
B||----------0-1-|--------------|--1---1---|--3---3---|----6---6-|----5---5-|
G||------2-3-----|----------4-5-|----5---5-|----7---7-|----------|----------|
D||----0---------|------7-8-----|----------|----------|----------|----------|
A||--3-----------|----5---------|----------|----------|----------|----------|
E||--------------|--8-----------|----------|----------|----------|----------|


--3---3---|------0-1-3-|------------||
----8---8-|--1-3-------|------5-6-8-||
----------|------------|--5-7-------||
----------|------------|------------||
----------|------------|------------||
I denne lektion ser vi på hvordan venstre hånds fingre kan bruges til at huske tonerne på gribebrættet. Vi beskriver i detaljer hvordan du kan bevæge dig rundt på gribebrættet med en gruppe fingre og dermed huske de positioner tonerne ligger i.

Facebook kommentarer