Guitar teknik

Du er her

For at få dit guitarspil til at lyde af mere kan du indøve nogle meget brugte guitarteknikker. Vi kigger på 3 af de mest brugte indenfor country og blues (akustisk).

For at få dit guitarspil til at lyde af mere kan du indøve nogle meget brugte guitarteknikker. Vi kigger på 3 af de mest brugte indenfor country og blues (akustisk). To af de mest populære er venstrehånds teknikkerne: hammer on og pull off. I højre hånd har vi allerede kigget på palm mute teknikken som ikke kun bruges i country og blues men også især i pop og heavy.

Hammer On
Ved hammer-on anslår du i eksemplet en løs* streng og mens strengen klinger sætter du lidt kraftigt (hamrer) en finger på så man kan høre tonen du "hamrer" uden at du anslår strengen i højre hånd.

Øvelse
1. anslå løs streng
2. sæt finger på (5) streng i (3) bånd - uden hjælp af højre hånd
Du kan i videoen se det i praksis:

Pull Off
I pull off skal du anslå en streng som ikke er løs og trække strengen tilbage med hjælp af venstre hånd, så den giver en lyd fra sig.

Øvelse
1.
 anslå (5) streng i (3) bånd
2. træk streng tilbage så den klinger løs

Se video om hammer on og pull off

*Behøver ikke at være løs, men den finger der ligger på den streng der bliver anslået må ikke flyttes. Her er et eksempel:

E||-------------------|----------------------|-------------------| 
B||--1----------------|----------------------|--1----------------| 
G||--0----------------|----------------------|--0----------------| 
D||--2----------------|----------------------|--2----------------| 
A||--3----------------|--0h----3-------------|--3----------------| 
E||-------------------|----------------------|-------------------|
E||-------------------|----------------------|-------------------| 
B||--1----------------|----------------------|--1----------------| 
G||--0----------------|----------------------|--0----------------| 
D||--2----------------|----------------------|--2----------------| 
A||--3----------------|--2h----3-------------|--3----------------| 
E||-------------------|----------------------|-------------------|