Fingerspil øvelse 3 / arpeggio 3

Du er her

Her kommer den tredje arpeggio øvelse.

Arpeggio
ex.3

P M A I

E||------------0---------|------------0---------|------------0---------|
B||-------0--------------|-------1--------------|-------2--------------|
G||-----------------0----|-----------------2----|-----------------2----|
D||----------------------|----------------------|----------------------|
A||--0-------------------|--0-------------------|--0-------------------|
E||----------------------|----------------------|----------------------|

------------0---------|------------4---------|------||
-------1--------------|-------0--------------|------||
-----------------0----|-----------------1----|------||
----------------------|----------------------|------||
--3-------------------|--2-------------------|------||
----------------------|----------------------|------||

Spilletips

Vi laver om på P A M I og bruger nu P M A I

Spillestil

Klassisk guitar fingerspil

Genre

Arpeggio øvelser