Fingerspil med 3 toner i basen - Øvelse #4

Du er her

Denne øvelse viser hvordan man kan genbruge fingerspillet på andre akkorder, og kun skifte bastoner, dsv. dem der bliver spillet med tommelfingeren. Denne øvelse bør også læres udenad men først når du har forstået konceptet bag fingerspillet og ikke kun øvelse 4 som værende en melodi du lærer udenad, det er bedre at du kan spille fingerspillet over en G akkord, end at du kan hele "melodien" udenad, og ikke kan overføre konceptet/idéen videre til andre akkorder. Med tiden (gerne efter et par dage), kan du selv genbruge fingerspillet (mere korrekt: højre hånds fingerpositioner specifikt til øvelserne på disse sider) i andre tonearter. Prøv f.eks med D-dur: DA7G ovs.

E||-----------0-----------0--|-----------1-----------1--|
B||-----1-----------1--------|-----0-----------0--------|
G||--------0-----------0-----|--------0-----------0-----|
D||--------------2-----------|--------------0-----------|
A||--3-----------------------|--------------------------|
E||--------------------------|--3-----------------------|
 

-----------0-----------0--|-----------1-----------1--|
-----1-----------1--------|-----0-----------0--------|
--------0-----------0-----|--------0-----------0-----|
--------------2-----------|--------------0-----------|
--3-----------------------|--------------------------|
--------------------------|--3-----------------------|

-----------1-----------1--|-----------0-----------0--|
-----1-----------1--------|-----1-----------1--------|
--------2-----------2-----|--------0-----------0-----|
--------------3-----------|--------------2-----------|
--------------------------|--3-----------------------|
--1-----------------------|--------------------------|

-----------1-----------1--|-----------0-----------0--|----||
-----0-----------0--------|-----1-----------1--------|----||
--------0-----------0-----|--------0-----------0-----|----||
--------------0-----------|--------------2-----------|----||
--------------------------|--3-----------------------|----||
--3-----------------------|--------------------------|----||

Spillestil

Fingerspils spillestilen

Genre

Fingerspils øvelser