Walking bas øvelse 1

Du er her

I denne øvelse ser vi på hvordan vi med en 1. positions C akkord kan bevæge os på bastonerne. Hhv. (5), (4), (6) og (5) streng igen.

()=må ikke spilles - spil kun bastonerne
PM PM PM PM
Q Q Q Q
E||-----------------------------------------------------------|
B||--(1)------------------------------------------------------|
G||-----------------------------------------------------------|
D||--(2)---------------------------------------2---------2----|
A||---3-------------------------------------------------------|
E||-------------------------------------------------3---------|

PM PM PM PM
Q Q Q Q
------------------------|
--(3)-------------------|
------------------------|
--(4)----4---------4----|
---5--------------------|
--------------5---------|

Husk at gribe akkorden i venstre hånd!
PM PM PM PM
Q Q Q Q
--------------------------------------------------------|
--(5)---------------------------------------------------|
--------------------------------------------------------|
--(6)------------------------------------6---------6----|
---7----------------------------------------------------|
----------------------------------------------7---------|

PM PM PM PM PM PM PM PM
Q Q Q Q Q Q Q Q
------------------------|----------------------------|
--(7)-------------------|---(9)----------------------|
------------------------|----------------------------|
--(8)----8---------8----|--(10)----10----------10----|
---9--------------------|---11-----------------------|
--------------9---------|----------------11----------|

PM PM PM PM
Q Q Q Q
----------------------------||
--(10)----------------------||
----------------------------||
--(11)----11----------11----||
---12-----------------------||
----------------12----------||

Spilletips

Spil med tommel i højre hånd. I venstre hånd bliver vi med at bruge en C type akkord og bruger denne flere steder på gribebrættet. Teoretisk set skifter vi også akkord.

Spillestil

Walking bas

Genre

Fingerpicking øvelser