Auld Lang Syne Fingerstyle

Du er her

Her får du Auld Lang syne i en mellemsvær fingerstyle udgave.

Sådan spiller du: Auld Lang Syne Fingerstyle

I denne mellemsvære fingertyle udgave har vi tilføjet mellemtoner til de forskellige pauser. Desuden har vi også tilføjet en ret svær G akkord med et spred af fingrene fra 3. bånd til 7. bånd og med brug af 3 strenge. Husk at vekselbas ikke skal dæmpes i denne sang. Tommelfinger spiller ikke kun bastoner med også den løse(åbne) 3. streng (G strengen).

Tabulatur(tabs)

E |----------------------------|--2-------------------------|
B |--------3L-3L-3--2--3-------|--------5--------3--5-------|
G |--2--------2-----------2----|-----2-----2-----------2----|
D |--------0-----0L-0--0-------|--0-------------------------|
A |----------------------------|--------0-----0-----0-------|
E |----------------------------|----------------------------|

--2-----------------2-------|--5-----7L-7L-7L-7--7-------|
-----5--3--------3-----3----|-----3-----0-----0----------|
-----------2----------------|--------0-----0-----4-------|
--------0-----4-----0-------|--0-------------------------|
--0L-0----------------------|----------------------------|
----------------------------|--------------------3-------|

--7-----5L-5L-5--2--2L-2----|----------------------------|
-----------3-----------3----|-----3--5L-5L-5--3--5-------|
--4-----------2-------------|--2L-2-----2-----------2----|
--------0-----------0-------|----------------------------|
----------------------------|--------0-----0-----0-------|
--3-------------------------|----------------------------|

--2-------------------------|----------------------------|
-----5--3L-3L-3--0----------|--------3L-3L-3L-3L-3-------|
-----------0--------4-------|--2--------2-----2----------|
--------------0-------------|--------0-----4-------------|
--0-----------------2-------|--0L----0-----------5-------|
--------3-------------------|----------------------------|

--7-----5L-5L-5--2--2-------|----------------------------|
-----------3-----------3----|-----3--5L-5L-5--3--5-------|
--------------2-------------|--2--------2-----------2----|
--------0-----------0-------|----------------------------|
----------------------------|--------0-----0-----0-------|
----------------------------|----------------------------|

--7-----5--------2--2-------|--5-----7L-7L-7L-7L-7--10L--|
-----------3-----------3----|-----3-----0-----0----------|
--------------2-------------|--------0-----0L-0--0-------|
--------0-----------0-------|--0-------------------------|
--0-------------------------|----------------------------|
----------------------------|----------------------------|

--10-5--------2--2----------|-----------------------2----|
--------3L-3L-3L-3--3L-3----|--3--5L-5-----3--5----------|
-----------------------2----|--------2-----------2-------|
-----0-----0-----0----------|----------------------------|
----------------------------|-----0-----0L-0--0-----0----|
----------------------------|----------------------------|

----------------------------|----------------------------|
--5--3L-3L-3--0-------------|-----3----------------------|
--------0--------4-----2L---|--2-----2-----2-------------|
-----------0----------------|-----0-----4----------------|
-----------------2-----0L---|--0--------------5L-5L-5----|
-----3----------------------|----------------------------|

-----------------------5L---|--5L-5L----------5----------|
-----------------------3----|----------------------------|
-----------------------2----|----------------------------|
-----------------------0----|----------------------------|
-----------------------0----|----------------------------|
-----------------------0----|----------------------------|

----------------------------||
----------------------------||
----------------------------||
----------------------------||
----------------------------||
----------------------------||

Pdf

It appears your Web browser is not configured to display PDF files. Download adobe Acrobat eller klik her for at downloade PDF-filen.

Facebook kommentarer