Billy Boy

Du er her

Billy Boy er en utrolig sjov og velklingende melodi i den lette genre, som dog kan være svær på grund af sine konstante on beats.

Sådan spiller du: Billy Boy

Vi spiller med plekter og vi undgår of beats og for mange hammer on og pull off. Ja det kan være underligt at spille direkte på slaget, når man er vant til at få det til at swinge via off beats, men den går ikke i denne melodi. Melodien lyder aller bedst med en rytmeguitar som akk. Har du ikke mulighed for det kan du anvende dig af Maybelle Carter teknikken og strumme lige efter hver tone. Akkorderne står nedenunder tabulaturen og kan bruges om du vil spille rytmeguitar sammen med melodien.

Akkorder

Akkorder: (4 slag inden for hver)
Optakt|C|C|C|C|
C|C|C-G7|G7|G7|
G7|G7|C|C|C|G7|
C|C| (gentages)

Tabulatur(tabs)

E||------------|---------------------|---------------------|
B||------------|---------------------|--1------------------|
G||------------|--0--------0----0----|---------------------|
D||--2----3----|---------------------|-----------2----3----|
A||------------|---------------------|---------------------|
E||------------|---------------------|---------------------|

---------------------|---------------------|---------------------|
---------------------|---------------------|---------------------|
--0--------0----2----|--0------------------|--0--------0----0----|
---------------------|-----------2----3----|---------------------|
---------------------|---------------------|---------------------|
---------------------|---------------------|---------------------|

---------------------|--------------------|-------------------|
--1------------------|--------------------|-------------------|
---------------------|--------------------|-------------------|
-----------3----2----|--2----0------------|--------------0----|
---------------------|--------------------|-------------------|
---------------------|--------------------|-------------------|

----------------------|---------------------|----------------------|
----------------------|---------------------|----------------------|
----------------------|----------------0----|----------------------|
--2----3----3----3----|--3----3-------------|--3----2----0----2----|
----------------------|---------------------|----------------------|
----------------------|---------------------|----------------------|

---------------------|----------------------|----------------------|
----------------1h---|--1-------------------|----------------------|
-------0-------------|-----2--0-------------|--0-------------------|
--3------------------|-----------------2----|-------3----0---------|
---------------------|----------------------|-----------------2----|
---------------------|----------------------|----------------------|

--------------------|------------------|------------------||
--------------------|------------------|------------------||
--------------------|------------------|------------------||
------0-------------|------------------|------------------||
---------------3----|------------------|------------------||
--------------------|------------------|------------------||

Facebook kommentarer