Boogie Woogie i G dur for begyndere

Du er her

Denne boogie woogie har sin oprindelse i gammel blues indspilninger med Reverend Gary Davis, Big Bill Broonzy, Ligthning Hopkins, og mange andre, den er siden hen kvikket lidt op brugt i meget rock 'n roll eller mere korrekt rockabilly som Carl Perkins, Sleepy La Beef og Elvis Presley gjorde berømt. Hank Marvin og The Ventures for blot at nævne nogle få benytter sig også meget af denne teknik. DU kan være sikker på at samtlige af de store navne så som Mark Knopfler og Eric Clapton og Jimi Hendrix alle har spillet boogie woogie til hudløshed og at de alle sammen kan spille den i samtlige tonearter, men det kommer vi tilbage til.

Sådan spiller du: Boogie Woogie i G dur for begyndere

Riffet spilles langsomt (mere langsomt end du tror), lyt til Rolling Stones' Honky Tonk Woman så forstår du hvorfor. Det er ikke væsentligt om du spiller med plekter eller bruger fingerspil. Resultatet er det samme .

Tabulatur(tabs)

Boogie Woogie i G dur for begyndere

E||-----------------------|-----------------------||-----------------------|
B||-----------------------|-----------------------||-----------------------|
G||*----------------------|----------------------*||*------------0----2----|
D||*----------------------|--0-------------------*||*-------2--------------|
A||--------0----2----3----|-------3----2----0-----||---3-------------------|
E||---3-------------------|-----------------------||-----------------------|

-----------------------||----------------------|----------------------|
-----------------------||----------------------|----------------------|
--3----2----0---------*||----------------------|----------------------|
-----------------2----*||----------------------|--0-------------------|
-----------------------||-------0----2----3----|-------3----2----0----|
-----------------------||--3-------------------|----------------------|

----------------------|----------------------|-----------------2----|
----------------------|----------------------|------------3---------|
------------0----2----|--3----2----0---------|-------2--------------|
-------2--------------|-----------------2----|--0-------------------|
--3-------------------|----------------------|----------------------|
----------------------|----------------------|----------------------|

----------------------|----------------------|-------------------||
--3-------------------|-------1--------------|-------------------||
-------2--------------|--0---------0---------|-------------------||
-----------------2----|-----------------2----|-------------------||
------------3---------|----------------------|-------------------||
----------------------|----------------------|--3----------------||

Pdf

It appears your Web browser is not configured to display PDF files. Download adobe Acrobat eller klik her for at downloade PDF-filen.

Facebook kommentarer