Bourée i e-mol

Du er her

Bourée i e-mol er blevet et ret kendt guitarstykke selvom det oprindeligt blev lavet til cello af den kendte klassiske komponist - harmonimesteren: Johan Sebastian Bach f. 1685 d. 1750. Grunden til at det faktisk nærmest er et pophit skyldes rockbandet Jethro Tull som brugte det som et slags riff på "Stand up", en af deres vinyl plader fra 1969, hvor de satte en swingrytme/shuffle rytme på den "gamle dreng". Bourée er et faktisk et utroligt kompliceret stykke som derfor kun røres med respekt af de største. Julian Bream har lavet en fantastisk fortolkning af den på guitar.

Sådan spiller du: Bourée i e-mol

Ja hvordan spiller man egentlig sådan et stykke? Man sætter sig ned og studerer det node efter node og så håber man på at man kan huske det udenad. Når man kan det så kan man spille det teknisk set, men musikalsk set... det kan tage flere måneder, måske endda år. En varm anbefaling lyt til indspilninger af det og prøv om du kan finde noget materiale med Bach. Bach er en tung hest at ride på, så giv dig tid.
Bemærk indspillet på western guitar, og ikke klassisk guitar. Leo Kottke har gjort det samme.

Tabulatur(tabs)

E||--------------0--2--||---3----2--0-------0--2--|------------------------|
B||--------------------||--------------4----------|--0----2--4--5----3--1--|
G||--------------------||*------------------------|------------------------|
D||--------------------||*------------------------|------------------------|
A||--------------------||--------0-----2----0-----|------------------------|
E||--------------3--2--||---0---------------------|--3----2-----0----2-----|

------------------------|--------------------0--2--|--3----2--0-------0--2--|
--0---------------------|--0-----------------------|-------------4----------|
-------2--0-------0--2--|-----2--0-----------------|------------------------|
-------------4----------|-----------4--2-----------|------------------------|
-------0-----2----0-----|--------2-----------------|-------0-----2----0-----|
--3---------------------|--3-----------0--2--3--2--|--0---------------------|

------------------------|------------------------|---------------0--2---||
--0----2--4--5----3--1--|--0---------------------|----------------------||
------------------------|-------2--0----------0--|--0------------------*||
------------------------|-------------4----------|--0------------------*||
------------------------|-------3-----5----5-----|--2-------------------||
--3----2-----0----2-----|--3---------------------|--3------------3--2---||

---------------------||-------------------3-----|------------------------|
---------------0-----||---3-------1--0-------3--|--5----0--3-------------|
--0---------------0--||*-------2----------------|-------------5----4--2--|
--0------------------||*------------------------|------------------0-----|
--2------------------||--------0----------2-----|--3----------0----------|
--3------------3-----||---2----------3----------|-------4----------------|

------------------------|-------------------------|-------3----------------|
----------0--1----------|-------------------3-----|--0-------3--5----0--3--|
--1----2----------4--2--|--2-------------------2--|------------------------|
--2----------2----------|-------------------0-----|------------------------|
-------0----------------|--0--2--0----------------|-------2-----3----------|
------------------0-----|-----------3--2----------|--3---------------4-----|

-------5----------------|----------------------------|-------------------7-----|
----------5--7----------|-------2-----------------0--|--0-------------------7--|
--5---------------6--9--|--7-------4--3h-4h-3--------|-------------------------|
-------------0----------|-------2-----4--------------|-------------------------|
--0----4----------------|----------------------------|--------------6----------|
------------------6-----|--7-------------------2-----|--7--6--7--9-------7-----|

--4----2--0--5----0--3--|--2----0-----3----------|-------5----------------|
------------------------|----------3-------3--6--|--5-------5--7----2--5--|
------------------------|------------------------|------------------------|
--2----0----------------|--0---------------------|------------------------|
-------------4----0-----|-------3-----2----------|--3---------------------|
------------------------|------------------3-----|-------7-----5----2-----|

-------------------------|--------------------------|-------------------------|
--4----0-----------5-----|--------------------------|-------------------------|
----------------------4--|--5-----7-----4-----5-----|--2-----4-----0----------|
-------------------------|-----------7-----------5--|-----------4-------4--2--|
--2-------3--2--0--------|-----7--9--------6--7-----|-----4--6----------0-----|
-------------------4-----|--5-----------3-----------|--2-----------0----------|

------------------------|----------------------||-------------------||
------------------------|---------------0------||-------------------||
-------------0----------|------------------0--*||-------------------||
--1----2--4-------4--2--|--2------------------*||--2----------------||
--2----0-----2----------|----------------------||-------------------||
------------------------|--0------------3------||--0----------------||

Pdf

It appears your Web browser is not configured to display PDF files. Download adobe Acrobat eller klik her for at downloade PDF-filen.

Facebook kommentarer