Burning Lidian

Du er her

Den heavy rock guitar lektion er venligst lavet til os af den italienske guitarist Thiago Thrinsi:
This is from my song that I wrote ,I am recording my First one solo CD instrumental ,and there is a moment where I play this part. In the video this is in 130 bpm , but in the record is in 142 bpm .

Sådan spiller du: Burning Lidian

I am playing on the Lidian degree (4# IV°) using Alternate Pick Technique in a group of arpegios that I mix notes of the scale! It is extremely important to start of slow form to acquire more clarity and dynamic with the notes, therefore in these stretches I´m playing Arpegios with Jumps and Alternate Pick , it´s not so easy to have good control but keep in ,and the result will be impressive ! Keep Rocking!! and See you next!
So enjoy!
Here I am playing about the lidians with Alternate pick Technique on a set of arpegios with jumps and mixing some notes of the scale! it is extremely important to start of slow form to have more clarity and dynamic, therefore the stretches are not easy! but the result is
really impressive! The secret is clarity and dynamic,so start slow and get higher speed gradually. The Chords are: A9/4# B C9/4# D E4 E
enjoy !! see you next

Tabulatur(tabs)

burning Lidian

by Thiago Trinsi

S S S S S S S S S S S S S S S S
E||--9-5-----5-------12-9------------9-12-|
B||-----------------------10-12---10------|
G||------9-8---9-8-6------------9---------|
D||---------------------------------------|
A||---------------------------------------|
E||---------------------------------------|

S S S S S S S S S S S S S S S S
--11-7------7--------14-11-------------11-14-|
---------------------------12-14----12-------|
-------11-9---11-9-8-------------11----------|
---------------------------------------------|
---------------------------------------------|
---------------------------------------------|

S S S S S S S S S S S S S S S S
--15-12-------------12-15-14-10-------10----------|
--------13-15----13-------------------------------|
--------------12----------------14-12----14-12-11-|
--------------------------------------------------|
--------------------------------------------------|
--------------------------------------------------|

S S S S S S S S S S S S S S S S
--17-12-------17-12-------16-12-------12----------|
--------17-12-------17-12-------------------------|
--------------------------------16-14----16-14-13-|
--------------------------------------------------|
--------------------------------------------------|
--------------------------------------------------|

S S S S S S S S S S S S S S S S
--17-12-------17-12-------16-12-------12-----------||----||
--------17-12-------17-12--------------------------||----||
--------------------------------16-14----16-14-13-*||----||
--------------------------------------------------*||----||
---------------------------------------------------||----||
---------------------------------------------------||----||

Pdf

It appears your Web browser is not configured to display PDF files. Download adobe Acrobat eller klik her for at downloade PDF-filen.

Facebook kommentarer