Death Comes Creeping

Du er her

Death comes creeping er en traditionel blues melodi, som Bob Dylan bla. har indspillet under titlen: WHATCHA GONNA DO. Stefan Grossman har indspillet den på: Shake that thing, samt flere af sine undervisnings cd'er og videoer. Denne version er transkriberet af Stefan Grossman. Anbefales kraftigt til begyndere af fingerspils genren og som savner melodier at gå videre med.

Sådan spiller du: Death Comes Creeping

Her skal vi stemme 6. streng dvs. den dybeste bas-streng om til D. Bassen som spilles med tommelfingeren spiller kun på 6. og 4. streng. Læg mærke til at vi her får samme tone med et oktavspring, nemlig: D. I venstre hånd tager du nogen relativt nemme greb. Eneste vanskelighed er nok at slide op i 6. bånd, men det klarer du fint efter nogen øvelse. Det er vigtigt at du øver tommelfingerpositionerne i højre hånd, dvs. basløbet, FØR du går i gang med melodiforløbet. Husk at spille en shuffle rytme. Lyt om muligt til sangen på real audio.

Tabulatur(tabs)

(6) = D                                                                             

E||------------------------|------------------------|------------------------|
B||-----------0--3---------|-----------0--3---------|-----------0--3----3----|
G||-----2------------------|-----2------------------|-----2------------------|
D||--------0----------0----|--------0----------0----|--------0----------0----|
A||------------------------|------------------------|------------------------|
D||--0-----------0---------|--0-----------0---------|--0-----------0---------|

                                                                          
------------------------|-----2-------5---------|-----5-------7--5-------|
--3--0------------------|--3--------------------|--6---------------------|
-----------2------------|-----------------------|------------------------|
--------0----------0----|--------0---------0----|--------0----------0----|
------------------------|-----------------------|------------------------|
--0-----------0---------|--0----------0---------|--0----------0----------|

                                                                           
-----0-----------------|-----0------------------|-----------------0-------|
--6----------3---------|--6-------------3-------|-----3-------------------|
-----------------------|------------------------|-----------0-------------|
--------0---------0----|--------0----------0----|--------0-----------0----|
-----------------------|------------------------|-------------------------|
--0----------0---------|--0----------5----------|--5-----------5----------|

                        
----------------------||
--3-------------------||
----------------------||
-------0---------0----||
----------------------||
--0---------0---------||

Facebook kommentarer