Elefantens vuggevise fingerspil

Du er her

Denne skønne børnesang lyder fantastisk med guitar akkompagnementet der understøtter melodien. Fingerspillet er i G dur og har en jazz swing følelse over sig. Lektionen er for øvede guitarister.

Sådan spiller du: Elefantens vuggevise fingerspil

Fingerspillet til Elefantens vuggevise er jazzinspireret med en del bastoner der sniger sig ind ved akkordskift og ved optakt til en ny akkord. Et godt eksempel er optakt fra Am til D7 på 5. streng. og optakten fra am til B7 på 5. streng. Bemærk at D7 tages i 3. position og at Em i nogle takter spilles som et Dm greb i 4. bånd. Derudover spilles Cm og Bm i hhv. 8. og 7. bånd. Så med andre ord eksperimenteres det meget med akkorder i dette fingerspil. 

Elefantens vuggevise fingerspil

Tabulatur(tabs)

E |-------||---------------------------|----------------------------|
B |-------||---------------------------|----------------------------|
G |-------||o------0-----------0-------|--------2-----------5-------|
D |-------||o---0-----------2----------|-----2-----------4----------|
A |-------||---------------------------|--0--------2--5-------------|
E |--0----||-3--------3--0--------0----|-----------------------0----|


----------------------------|----------------------------|
----------------------------|----------------------------|
--------0-----------0-------|--------2-----------5-------|
-----0-----------2----------|-----2-----------4----------|
----------------------------|--0--------2--5-------------|
--3--------3--0--------0----|-----------------------0----|


----------------------------|----------------------------|
----------------------------|----------------------------|
--------0-----------0-------|--------2-----------2-------|
-----0-----------2----------|-----2-----------1----------|
----------------------------|--0--------1--2-------------|
--3--------3--0--------0----|-----------------------0----|


----------------------------|----------------------------|
--------5-------------------|----------------------------|
-----4-----4--------0-------|--------5-----------5-------|
-----------------2----------|-----7-----------4----------|
----------------------------|--0--------0--5-------------|
--0-----------5--------5----|-----------------------0----|


----------------------------|----------------------------|
----------------------------|----------------------------|
--------0-----------4-------|--------2-----------5-------|
-----0-----------4----------|-----2-----------4----------|
--------------2--------2----|--0--------2--5-------------|
--3--------3----------------|-----------------------0----|


----------------------------|----------------------------|
----------------------------|----------------------------|
--------0-----------0-------|--------0-----------1-------|
-----0-----0-----3-----3----|-----2-----2-----0----------|
----------------------------|--3-------------------------|
--3-----------3-------------|--------------0--------0----|


----------------------------|----------------------------|
----------------------------|----------------------------|
--------5-----------8-------|--------7-----------7-------|
-----7-----------10---------|-----9-----9-----6----------|
--0-------------------------|----------------------------|
-----------5--8--------8----|--7-----------0--------0----|


----------------------------|---------------------------||----||
----------------------------|---------------------------||----||
--------5-----------5-------|--------0-----------------o||----||
-----7-----------4----------|-----0-----0--------------o||----||
--0--------0--5-------------|---------------------------||----||
-----------------------0----|--3-----------3L-3L-3--0---||----||

Pdf

It appears your Web browser is not configured to display PDF files. Download adobe Acrobat eller klik her for at downloade PDF-filen.

Facebook kommentarer