Fastelavn er mit navn fingerpicking lektion

Du er her

Fastelavn er mit navn spiller vi her i en fingerpicking udgave med dæmpet vekselbas i Chet Atkins spillestilen

Sådan spiller du: Fastelavn er mit navn fingerpicking lektion

Du spiller vekselbas med tommel på (5),(4), og (6) streng og tilbage på (4) streng ved A dur akkorden og på (6) og (4) streng ved E akkorden. På D dur akkorden spiller du et F# i bassen så du spiller både på de almindelige (4), (3) og (5) streng og slut på (4) streng men også på (6), (4) og (5) streng. Se video for detaljer.
Det er en god ide at lære melodilinjen først fra tabulaturen eller ved brug af noderne.

Tabulatur(tabs)

E ||----0----------------------|-----0----------------------| 
B ||-2-------------------------|--2-------------------------| 
G ||o------2-------------------|--------2-------------------| 
D ||o---2-----------2-----2----|-----2-----------2-----2----| 
A ||-0-----------0-------------|--0-----------0-------------| 
E ||-------0-----------0-------|--------0-----------0-------| 

-----2--5--2----------------|--2--0----------------| 
--3-------------------------|----------------------| 
-----2-----------2----------|----------------------| 
--0-----------0--------0----|-----------2-----2----| 
----------------------------|--0--0--0-----0-------| 
--------2-----------2-------|----------------------|
 
-----0----------------------|-----0----------------------| 
--2-------------------------|--2-------------------------| 
--------2-------------------|--------2-------------------| 
-----2-----------2-----2----|-----2-----------2-----2----| 
--0-----------0-------------|--0-----------0-------------| 
--------0-----------0-------|--------0-----------0-------| 

----------------------------|----------------------|----------------| 
--0--2--3--0----------------|--0-------------------|----------------| 
----------------------------|-----2----------------|----------------| 
-----2-----------2-----2----|-----------0-----2----|-----2-----2----| 
----------------------------|-----0--------0-------|--------0-------| 
--0-----0-----0-----0-------|--0-----0-------------|--0-------------| 

---------------||| 
---------------||| 
--------------o||| 
--------------o||| 
-----------0---||| 
--0--2--4------|||

Pdf

It appears your Web browser is not configured to display PDF files. Download adobe Acrobat eller klik her for at downloade PDF-filen.

Facebook kommentarer