Fastelavn er mit navn melodistemme

Du er her

Fastelavn er mit navn i en meget enkel udgave med melodistemme

Sådan spiller du: Fastelavn er mit navn melodistemme

Spil melodien med plekter, pegefinger eller tommelfinger. Alt er tilladt. Husk at holde takten og spille 8nde dele samt fjerdedels toner.
Se evt. video som hjælp

fastelavn er mit navn noder og tabs

Tabulatur(tabs)

E ||----0----------|-----0----------|-----2--5--2----|--2--0----|
B ||-2-------------|--2-------------|--3-------------|----------|
G ||o------2-------|--------2-------|----------------|----------|
D ||o--------------|----------------|----------------|----------|
A ||---------------|----------------|----------------|----------|
E ||---------------|----------------|----------------|----------|

-----0----------|-----0----------|----------------|----------|----|---|||
--2-------------|--2-------------|--0--2--3--0----|--0-------|----|---|||
--------2-------|--------2-------|----------------|-----2----|----|--o|||
----------------|----------------|----------------|----------|----|--o|||
----------------|----------------|----------------|----------|----|---|||
----------------|----------------|----------------|----------|----|---|||

Pdf

It appears your Web browser is not configured to display PDF files. Download adobe Acrobat eller klik her for at downloade PDF-filen.

Facebook kommentarer