Fisher's Hornpipe

Du er her

Fisher's hornpipe er en traditionel irsk violin melodi. Den er også populær hos mandolin og thinwhistle spillere. Takket være Doc Watson er den nu blevet en flat pick showcase (plekter pralenummer) på guitar.

Sådan spiller du: Fisher's Hornpipe

Nummeret er et flatpicking nummer og skal derfor spilles med plekter med op og nedslag på ottendedels noderne. Det kræver lidt selvdiciplin. Gevinsten er at du kan spille den i et hurtigt tempo, som den bliver på violin og i Doc's hænder. Melodien er ikke svær - den er bare hurtig! Det er jo svært at spille hurtigt før man først har øvet samtlige akkordskift og takter langsomt, så derfor: øe øve øve i et langsomt tempo.  Held og lykke!

Tabulatur(tabs)

| | | | | | | |
|--------------------------------|--------------------------------|
|----------------------------0---|1-------------------------------|
|------------------------2-------|----0-------0-------2---0-------|
|--------------------------------|--------2-------3-----------3---|
|--------------------------------|--------------------------------|
|--------------------------------|--------------------------------|

| | | | | | | |
|--------------------------------|--------------------------------|
|--------------------------------|--------------------------------|
|----0-------0-------2---0-------|--------------------2---2-------|
|2-------2-------3-----------3---|2-------0---2---3-----------3---|
|--------------------------------|----3---------------------------|
|--------------------------------|--------------------------------|

| | | | | | | |
|--------------------------------|--------------------------------|
|----------------------------0---|1-------------------------------|
|------------------------2-------|----0-------0-------2---0-------|
|2-------0---2---0---------------|--------2-------3-----------3---|
|----0---------------------------|--------------------------------|
|--------------------------------|--------------------------------|

| | | | | | | |
|--------------------------------|--------------------1---0-------|
|--------------------------------|--------0---1---3-----------3---|
|----0-------0-------2---0-------|0---2---------------------------|
|2-------2-------3-----------3---|--------------------------------|
|--------------------------------|--------------------------------|
|--------------------------------|--------------------------------|

| | | | | | | |
|--------0-----------------------|----0---------------------------|
|1---------------1-----------0---|1-------3---0---1-------0---1---|
|------------------------2-------|--------------------------------|
|--------------------------------|--------------------------------|
|--------------------------------|--------------------------------|
|--------------------------------|--------------------------------|

| | | | | | | |
|--------------------------------|--------------------------------|
|3---------------3---------------|5---------------5---------------|
|----4-------4-------4-------4---|----5-------5-------5-------5---|
|--------5---------------5-------|--------5---------------5-------|
|--------------------------------|--------------------------------|
|--------------------------------|--------------------------------|

| | | | | | | |
|--------------------3---2---0---|--------------------------------|
|3---------------3---------------|3---1---0-----------------------|
|----4-------4-------------------|------------2---0-----------0---|
|--------5-----------------------|--------------------2---3-------|
|--------------------------------|--------------------------------|
|--------------------------------|--------------------------------|

| | | | | | | |
|--------------------------------|--------------------------------|
|--------------------1---0-------|----------------1---------------|
|2---------------2-----------2---|0-----------------------2-------|
|----3-------3-------------------|----2-------2-------------------|
|--------3-----------------------|--------3-----------------------|
|--------------------------------|--------------------------------|

| | | | | | | |
|--------------------1---0-------|--------0-----------------------|
|--------0---1---3-----------3---|1---------------1-------0---1---|
|0---2---------------------------|--------------------------------|
|--------------------------------|--------------------------------|
|--------------------------------|--------------------------------|
|--------------------------------|--------------------------------|

| | | | | | | |
|----0---------------------------|--------------------------------|
|1-------3---0---1---------------|--------------------------------|
|--------------------------------|--------------------------------|
|--------------------------------|--------------------------------|
|--------------------------------|--------------------------------|
|--------------------------------|--------------------------------|

Facebook kommentarer