Fjariln Vingad

Du er her

Fjariln vingad syns på haga er skrevet af Carl Michael Bellman, 1745-95, var svensk rokokko-digter og komponist. Han satte selv musik til digtene i sine to samlinger, "Fredmans epistlar" og "Fredmans sånger", som beskriver datidens Stokholmske bohemeliv. Bellman skrev også den kendte "Gubben Noak" (bjørnen sover) som er en meget kendt børnesang.

Sådan spiller du: Fjariln Vingad

Fjariln vingad er en spændende sang at spille fordi den er så dejlig iørefaldende. I denne udgave er der en del svære passager både i venstre og højre hånd. Prøv at placere pima før du begynder at spille. Det er også en god ide at gribe akkorderne selv om du kun spiller nogle få toner ud af akkorden. Du skal sprede fingrene en hel del i venstre hånd, f.eks. ved skift fra 2. til 5. bånd.

Tabulatur(tabs)

E||--------|----------------------|-----------------2--5--|
B||--3-----|----------------------|--3----3---------------|
G||-----4--|--2----2----2----2----|--2----2---------------|
D||--------|--0---------0---------|--0----4----0----------|
A||--------|----------------------|-----------------------|
E||--------|----------------------|-----------------------|

--3----3----3----5--3--|--2----------------------|----------------------|
-----------------------|-----3-----3-------3-----|----------------------|
-----------------------|--------2-------------4--|--2----2----2----2----|
-----------------------|--0-----------0----------|--0-------------------|
--0---------0----------|-------------------------|------------4---------|
-----------------------|-------------------------|----------------------|

-----------------5--2--|--0----0----0-----0--2--|-----------------5--3--|
--3----3---------------|--0------------3--------|--3--------------------|
--2----2---------------|--0---------------------|-------2---------------|
--0----4----0----------|------------------------|--0---------0----------|
-----------------------|------------0-----------|-----------------------|
-----------------------|--3---------------------|-----------------------|

--2----2----2----7----|--5----3---------3--2--|--0----0----0----5----|
--3---------0---------|--0--------------------|--2---------2---------|
--2---------2---------|--0--------------------|--0---------0---------|
--0---------1---------|-----------------------|----------------------|
----------------------|-----------------------|--0-------------------|
----------------------|--0---------0----------|------------3---------|

--3---------2----------|----------------------|-----------------5--2--|
--2---------3----3-----|----------------------|--3----3----3----------|
--3---------2-------4--|--2----2----2----2----|--2----2----2----------|
-----------------------|--0-------------------|--0----4---------------|
-------0---------------|------------4---------|------------2----------|
-----------------------|----------------------|-----------------------|

--0----0----0-----0--2--|---------------------|----------||
--0------------3--------|--3------------------|----------||
--0---------------------|-------2-------------|----------||
------------------------|------------0--------|----------||
------------0-----------|--0------------------|----------||
--3---------------------|---------------------|----------||

Facebook kommentarer