Freight Train (blues udgave)

Du er her

Elizabeht Cotten Januar 5, 1895 - Juni 29, 1987 skrev Freight Train da hun var 12 år gammel, på sin Stella guitar, en autodidukt pige som blot behøvede at høre sine venner spille en sang én gang for hende, så kunne hun den udenad. Dette geni udviklede en unik spillestil på guitaren. Da hun er venstrehåndet spiller hun guitar "omvendt". Tommelfingeren anslår således diskantstrengene og ikke basstrengene, derved bliver hendes melodi i diskanten mere tydelig, idet at tommelen aclefter kraftigere. Da hun blev gift i 1910 lagde hun guitaren på hylden og tog den først op igen i 1947 da hun stødte ind i Peggy Seeger, datter af Ruth Crawford Seeger og medlem af Seeger Family, som også tæller Pete Seeger, som "fandt" Mississippi John Hurt, som Cotten også har spillet sammen med, og Rev. Gary Davis, blandt andre, i 1946. I 1947 begyndte hun for alvor at øve guitar igen, og lærte sig selv at spille fofra. Hendes første indspilninger blev lavet i 1957. Fra 1960 og op til hendes død i 1987 var Elizabeth Cotten på turne, og fik masser af priser. Hun påvirkede en del guitarlegender der i blandt Chet Atkins som lavede helt sin egen udgave af Freight Train som passede til hans nylonstrengede guitar. Når du først har lært sangen, vil du aldrig kigge tilbage. Dit publikum vil elske den! Elizabeth Cotten mistede copyright på denne sang, da den blev tyvstjålet af nogle englændere ved diverse festivaler. Derfor betragtes den som traditionel, og omtales fejlagtigt som sådan.

Sådan spiller du: Freight Train (blues udgave)

Jeg har indspillet 3 videoer med Freight Train for at forklare hvordan du kan spille den. Her følger 3 videoer hvor Fríðrikur viser hvordan man spiller melodien. Fokus er både på højre og venstre hånd

 

Jeg har indspillet 3 videoer med Freight Train for at forklare hvordan du kan spille den
Videoklip
Her følger 3 videoer hvor Fríðrikur viser hvordan man spiller melodien.
Fokus er både på højre og venstre hånd

Højre
1. Højre hånd
Venstre
2. Venstre hånd
Alternativ version

3*. Alternativ version (en del sværere).
* Film nr. 3 viser hvordan man kan ændre på melodien med nogle få justeringer i højre hånd.
Bemærk at videoklippene er i WMV format, og de afspilles streaming, så ingen download er nødvendig. Brug gerne Windows Media Player

Tabulatur(tabs)

                           C                                           
E||---------------------|--3---------0---------|----------------------|
B||---------------------|----------------------|--3---------1---------|
G||---------------------|-------0---------0----|-------0--------------|
D||---------------------|------------2---------|-----------------0----|
A||-----------0----2----|--3-------------------|--3---------3---------|
E||------3--------------|----------------------|----------------------|

  G                       G7                     G         G7         
---------------3-------|--1-------------------|--3---------1---------|
--0--------------------|----------------------|----------------------|
-----------------------|----------------------|----------------------|
-------0----------0----|-------0---------0----|-------0---------0----|
-----------------------|----------------------|----------------------|
--3---------3----------|--3---------3---------|--3---------3---------|

                         C         G                                  
--0-------------------|---------------3-------|--0-------------------|
------------3---------|--1--------------------|----------------------|
----------------------|-------0----------0----|-------0---------0----|
-------0---------0----|------------2----------|------------2---------|
----------------------|--3--------------------|--3-------------------|
--3---------3---------|-----------------------|----------------------|

  E                                              F                     
--0------------1-------|--0-------------------|-----------------------|
-----------------------|------------3---------|--1------------3-------|
-----------------------|----------------------|-----------------------|
-------2----------2----|-------2---------2----|-------3----------3----|
------------2----------|----------------------|-----------------------|
--0--------------------|--0---------0---------|--1---------1----------|

                         C                                             
----------------------|--0--------------------|-----------------------|
--1---------1----3----|------------1----------|--0---------3----------|
----------------------|-------0-------2-------|-------0-------0-------|
-------3---------3----|------------------0----|------------------0----|
----------------------|--3---------3----------|-----------------------|
--1---------1---------|-----------------------|--3---------3----------|

                     
-------------------||
--1----------------||
-------------------||
-------------------||
--3----------------||
-------------------||
 

Facebook kommentarer