Freight Train (boom chic)

Du er her

Dette er Chet Atkins og senere også Tommy Emmanuels udgave af Freight Train. En af de mest populære og anvendte arrangementer hvor boom chic bassen rigtigt kommer til sin ret med heftig brug af P.M. som står for at du dæmper med håndledet: Palm Mute.

Sådan spiller du: Freight Train (boom chic)

Denne fingerpicking melodi kræver at du har en stor grundlæggende forståelse for fingerpicking spil. Især det grundlæggende som er at spille bastonerne med tommel eller med tommelplekter(thumbpick) og på de rigtige strenge indenfor hver akkord, og at dæmpe dem i højre hånd. Derudover anbefaler jeg også som guitarunderviser at du sætter dig ind i hvordan man spiller akkorder op af gribebrættet. Dertil er der en masse andre lektioner og øvelser der kan vise dig det. Til sidst vil jeg også anbefale at du kender til at flytte fingeren fra grundtonen i en C akkord til 6. streng.  Hvor du derved skifter imellem 5. og 6. streng. En meget brugt teknik. Kan du disse ting kan du godt lære Freight Train, uden problemer. Held og lykke!

Tabulatur(tabs)

    C                                             G7                     
     PM   PM   PM   PM      PM   PM   PM   PM      PM     PM   PM   PM    
     Q    Q    Q    Q       Q    Q    Q    Q       E   E  Q    Q    Q     
E||--3---------0---------|----------------------|--------------3---------|
B||----------------------|--3----1--------------|-------------------6----|
G||----------------------|----------------------|--3h--4-----------------|
D||-------2---------2----|-------2---------2----|---------3---------3----|
A||--3-------------------|--3-------------------|--------------5---------|
E||------------3---------|------------3---------|--3---------------------|

                         Dm                     G7                   
  PM   PM   PM   PM      PM   PM   PM   PM      PM   PM   PM   PM    
  Q    Q    Q    Q       Q    Q    Q    Q       Q    Q    Q    Q     
----------------------|--5-------------------|--0-------------------|
----------------------|------------6---------|-------3--------------|
----------------------|----------------------|----------------------|
-------3---------3----|-------7---------5----|-------3--------------|
------------5---------|--5-------------------|------------0----2----|
--3-------------------|------------5---------|--3-------------------|

  C                                               E                    
  PM     PM   PM   PM      PM   PM   PM   PM      PM   PM   PM   PM    
  E   E  Q    Q    Q       Q    Q    Q    Q       Q    Q    Q    Q     
--------------3----0----|----------------------|-------0---------1----|
--0h--1-----------------|----------------------|-------0---------1----|
------------------------|----------------------|-------1--------------|
---------2---------2----|-------2---------2----|-------2---------2----|
--3---------------------|--3-------------------|----------------------|
--------------3---------|------------3---------|--0---------0---------|

                           C                        F         B7         
  PM   PM   PM     PM           PM   PM     PM      PM   PM   PM   PM    
  Q    Q    E   E  Q       Q    Q    E  E   Q       Q    Q    Q    Q     
--0---------------------|------------------------|----------------------|
--0---------0h--3-------|--1------------1h--3----|--1---------0---------|
------------0---1-------|------------------------|-----------------2----|
-------2-----------2----|-------2-----------2----|-------3---------1----|
------------------------|--0---------------------|----------------------|
--0---------0-----------|------------3-----------|--1---------2---------|

  C                      G7                     C                    
  PM        PM   PM      PM   PM   PM   PM      PM   PM   PM   PM    
  Q    Q    Q    Q       Q    Q    Q    Q       Q    Q    Q    Q     
-------0--------------|--0-------------------|----------------------|
----------------------|-------3--------------|--1-------------------|
--0-------------------|----------------------|----------------------|
-------2---------2----|-------3--------------|-------2---------2----|
--3-------------------|-----------------2----|--3-------------------|
------------3---------|--3---------3---------|------------3---------|

  PM   PM   PM   PM        ^                                     
  Q    Q    Q    Q         W                                     
-----------------------||-------------------|-------------------|
-----------------------||--1----------------|-------------------|
----------------------*||--0----------------|-------------------|
----------------------*||--2----------------|-------------------|
--3---------0----2-----||--3----------------|-------------------|
-------3---------------||-------------------|-------------------|
 

Pdf

It appears your Web browser is not configured to display PDF files. Download adobe Acrobat eller klik her for at downloade PDF-filen.

Facebook kommentarer