Glade jul fingerspils akkompagnement

Du er her

Dette fingerspils akkompagnement til julemelodien Glade jul er ganske enkelt at spille. Det består af 3 akkorder. Hhv. A, E7, og D. Vi gør brug af arpeggio på alle akkorder. På videoen hører du den dygtige pianist Helena Michelsen spille melodien imens underviseren spiller akkorderne og fingerspil.

Sådan spiller du: Glade jul fingerspils akkompagnement

I højre hånd spiller du fingerspillet: Tommel på (5) streng ved A, (6) streng ved E7 og (4) streng ved D. Pegefinger: (3) streng, langfinger: (2) streng, og ringfinger: (1) streng, og derefter langfinger igen på (2) streng og til sidst pegefinger igen på (3) streng.

Pdf

It appears your Web browser is not configured to display PDF files. Download adobe Acrobat eller klik her for at downloade PDF-filen.

Tabulatur(tabs)

E |-----------0----------|-----------0----------|-----------0----------|
B |--------2-----2-------|--------2-----2-------|--------2-----2-------|
G |-----2-----------2----|-----2-----------2----|-----2-----------2----|
D |----------------------|----------------------|----------------------|
A |--0-------------------|--0-------------------|--0-------------------|
E |----------------------|----------------------|----------------------|

                                                                     
-----------0----------|-----------0----------|-----------0----------|
--------2-----2-------|--------0-----0-------|--------0-----0-------|
-----2-----------2----|-----1-----------1----|-----1-----------1----|
----------------------|----------------------|----------------------|
--0-------------------|----------------------|----------------------|
----------------------|--0-------------------|--0-------------------|

                                                                     
-----------0----------|-----------0----------|-----------2----------|
--------2-----2-------|--------2-----2-------|--------3-----3-------|
-----2-----------2----|-----2-----------2----|-----2-----------2----|
----------------------|----------------------|--0-------------------|
--0-------------------|--0-------------------|----------------------|
----------------------|----------------------|----------------------|

                                                                     
-----------2----------|-----------0----------|-----------0----------|
--------3-----3-------|--------2-----2-------|--------2-----2-------|
-----2-----------2----|-----2-----------2----|-----2-----------2----|
--0-------------------|----------------------|----------------------|
----------------------|--0-------------------|--0-------------------|
----------------------|----------------------|----------------------|

                                                                     
-----------2----------|-----------2----------|-----------0----------|
--------3-----3-------|--------3-----3-------|--------2-----2-------|
-----2-----------2----|-----2-----------2----|-----2-----------2----|
--0-------------------|--0-------------------|----------------------|
----------------------|----------------------|--0-------------------|
----------------------|----------------------|----------------------|

                                                                     
-----------0----------|-----------0----------|-----------0----------|
--------2-----2-------|--------0-----0-------|--------0-----0-------|
-----2-----------2----|-----1-----------1----|-----1-----------1----|
----------------------|----------------------|----------------------|
--0-------------------|----------------------|----------------------|
----------------------|--0-------------------|--0-------------------|

                            S
-----------0----------|-----------0----------|-----------0----------|
--------2-----2-------|--------2-----2-------|--------0-----0-------|
-----2-----------2----|-----2-----------2----|-----1-----------1----|
----------------------|----------------------|----------------------|
--0-------------------|--0-------------------|----------------------|
----------------------|----------------------|--0-------------------|

-----------0----------|-----------0----------|-------------||
--------0-----0-------|--------2-----2-------|-------------||
-----1-----------1----|-----2-----------2----|-------------||
----------------------|----------------------|-------------||
----------------------|--0-------------------|--0L----0----||
--0-------------------|----------------------|-------------||

Facebook kommentarer

Genre

Julesange

Forfatter

Fridrikur