Hvad gør vi nu lille du fingerspil

Du er her

I denne lektion får vi det ikoniske fingerspil til Hva' gør vi nu, lille du? som er en single fra Gasolin udgivet i 1976 sammen med sangen Keep on knockin'. Sangen er komponeret af gruppen selv, mens Mogens Mogensen har skrevet teksten til sangen. En stærk samfundpolitisk tekst med en letgenkendelig melodi og dertilhørende fingerspil, som er et af de kendeste fingerspil der findes, kun overgået af House of the rising sun fingerspillet.

Sådan spiller du: Hvad gør vi nu lille du fingerspil

Fingerspillet er nemt at spille, og kører med det samme højre hånds mønster i højre hånd. Akkorderne er også forholdsvis nemme hvor den eneste svære akkord er Bm. Det er som altid vigtigt at overholde rytmen og få samtlige toner at klinge i lige så lang tid før du spiller den næste tone. Et godt tip er at lade den tynde og løse E streng klinge akkorden ud.

Tabulatur(tabs)

E |-----------0-----------0----|-----------0-----------0----||
B |--------2-----------2-------|--------2-----------2-------||
G |-----2-----------2----------|-----2-----------2----------||
D |----------------------------|----------------------------||
A |--0-----------0-------------|--0-----------0-------------||
E |----------------------------|----------------------------||


----------0-----------0----|-----------0-----------0----|
-------2-----------0-------|--------0-----------2-------|
o---2-----------1----------|-----1-----------2----------|
o--------------------------|----------------------------|
-0-------------------------|--------------0-------------|
-------------0-------------|--0-------------------------|


-----------0-----------0----|-----------0-----------2----|
--------2-----------2-------|--------2-----------3-------|
-----2-----------2----------|-----2-----------2----------|
----------------------------|--------------0-------------|
--0-----------0-------------|--0-------------------------|
----------------------------|----------------------------|


-----------0-----------0----|-----------0-----------0----|
--------2-----------2-------|--------2-----------0-------|
-----2-----------2----------|-----2-----------1----------|
----------------------------|----------------------------|
--0-----------0-------------|--0-------------------------|
----------------------------|--------------0-------------|


-----------0-----------2----|-----------0----------------|
--------0-----------3-------|--------2-------------------|
-----1-----------2----------|-----2----------------------|
--------------0-------------|----------------------------|
----------------------------|--0-----------0-----1-------|
--0-------------------------|----------------------------|


----------------------------|-----------0-----------2----|
-----------3-----------3----|--------0-----------3-------|
--------4-----------4-------|-----1-----------2----------|
-----4-----------4----------|--------------0-------------|
--2-----------2-------------|----------------------------|
----------------------------|--0-------------------------|


-----------0-----------0---|||
--------2-----------2------|||
-----2-----------2--------o|||
--------------------------o|||
--0-----------0------------|||
---------------------------|||

Images

Pdf

It appears your Web browser is not configured to display PDF files. Download adobe Acrobat eller klik her for at downloade PDF-filen.

Facebook kommentarer