Kvinde min akkorder tekst og strum

Du er her

Kvinde min er alle tiders bedste danske kærlighedssang. Det blev den kåret til i en undersøgelse, som YouGov lavede for for Søndagsavisen. Det er en ikonisk Kim Larsen og Gasolin sang med et akustisk guitar strum med plekter der bare klinger derudad'.

Sådan spiller du: Kvinde min akkorder tekst og strum

Hvis du vil spille sammen med Gasolin pladen så skal du sætte din capo i 7. bånd og spille i Am. Det kan lyde lidt mandolinagtigt. Du kan også sagtens spille den uden capo når du synger og spiller for dig selv.  Prøv at eksperimentere med capo positioner, f.eks ved at sætte den i 3. bånd og dermed spille i Cm. Ved at du bruger capo undgår du barré akkorderne og kan udelukkende bruge åbne akkorder, altså akkorder med løse strenge. God fornøjelse med sangen!

Tabulatur(tabs)

E ||---------------|----------------|----------------|----------------|
B ||-1--1--1--1----|----------------|--1--1--1--1----|----------------|
G ||o2--2--2--2----|--1--1--1--1----|--2--2--2--2----|--1--1--1--1----|
D ||o2--2--2--2----|--2--2--2--2----|--2--2--2--2----|--2--2--2--2----|
A ||-0--0--0--0----|--2--2--2--2----|--0--0--0--0----|--2--2--2--2----|
E ||---------------|--0--0--0--0----|----------------|--0--0--0--0----|


----------------|--1--1--1--1----|--3--3--3--3----|--2--2--2--2---||
--1--1--1--1----|--1--1--1--1----|----------------|--3--3--3--3---||
--2--2--2--2----|--2--2--2--2----|--0--0--0--0----|--2--2--2--2--o||
--2--2--2--2----|--3--3--3--3----|--0--0--0--0----|--0--0--0--0--o||
--0--0--0--0----|----------------|--2--2--2--2----|---------------||
----------------|----------------|--3--3--3--3----|---------------||


--2--2--2--2----|----------------|--1--1--1--1----|----------------|
--3--3--3--3----|--1--1--1--1----|--1--1--1--1----|--1--1--1--1----|
--2--2--2--2----|--2--2--2--2----|--2--2--2--2----|--2--2--2--2----|
--0--0--0--0----|--2--2--2--2----|--3--3--3--3----|--2--2--2--2----|
----------------|--0--0--0--0----|----------------|--0--0--0--0----|
----------------|----------------|----------------|----------------|


--1--1--1--1----|----------------|--3--3--3--3----|--2--2--2--2----|
--1--1--1--1----|--1--1--1--1----|----------------|--3--3--3--3----|
--2--2--2--2----|--2--2--2--2----|--0--0--0--0----|--2--2--2--2----|
--3--3--3--3----|--2--2--2--2----|--0--0--0--0----|--0--0--0--0----|
----------------|--0--0--0--0----|--2--2--2--2----|----------------|
----------------|----------------|--3--3--3--3----|----------------|


--2--2--2--2----|----------------|--2--2--2--2----|----------------|
--3--3--3--3----|--1--1--1--1----|--3--3--3--3----|--1--1--1--1----|
--2--2--2--2----|--2--2--2--2----|--2--2--2--2----|--2--2--2--2----|
--0--0--0--0----|--2--2--2--2----|--0--0--0--0----|--2--2--2--2----|
----------------|--0--0--0--0----|----------------|--0--0--0--0----|
----------------|----------------|----------------|----------------|


--2--2--2--2----|----------------|--2--2--2--2----|----------------|
--3--3--3--3----|--1--1--1--1----|--3--3--3--3----|--1--1--1--1----|
--2--2--2--2----|--2--2--2--2----|--2--2--2--2----|--2--2--2--2----|
--0--0--0--0----|--2--2--2--2----|--0--0--0--0----|--2--2--2--2----|
----------------|--0--0--0--0----|----------------|--0--0--0--0----|
----------------|----------------|----------------|----------------|


--2--2--2--2----|----------------|--2--2--2--2----|----------------|
--3--3--3--3----|--1--1--1--1----|--3--3--3--3----|--1--1--1--1----|
--2--2--2--2----|--2--2--2--2----|--2--2--2--2----|--2--2--2--2----|
--0--0--0--0----|--2--2--2--2----|--0--0--0--0----|--2--2--2--2----|
----------------|--0--0--0--0----|----------------|--0--0--0--0----|
----------------|----------------|----------------|----------------|


--2--2--2--2----|----------------|----------------||
--3--3--3--3----|--1--1--1--1----|--1--1--1--1----||
--2--2--2--2----|--2--2--2--2----|--2--2--2--2----||
--0--0--0--0----|--2--2--2--2----|--2--2--2--2----||
----------------|--0--0--0--0----|--0--0--0--0----||
----------------|----------------|----------------||

Pdf

It appears your Web browser is not configured to display PDF files. Download adobe Acrobat eller klik her for at downloade PDF-filen.

Facebook kommentarer