Lagrima

Du er her

Lagrima er skrevet af den kendte spanske, klassiske komponist Fransisco Tárrega f.1852 d.1909 som fornyede den klassiske guitar med spændende værker såsom Recuerdos De La Alhambra og Capriche De Arabe. Lagrima er en lille sød prelude for den middelmådige guitarist. Et stykke som dog er blevet indspillet af store anerkendte guitarister som Julian Bream.

Sådan spiller du: Lagrima

Det er den musikalske intuition som er vigtig i dette stykke. Den kan du ikke lære ved at læse dig frem til det, men mere ved at lytte til indspilninger eller bruge dit indre øre og din egen musikalitet. Teknisk skal man være forsigtig med at gribe akkorderne for hårdt. Pas også på med at spille for staccato - lad sangen "glide". Lagrima er spansk for tåre så prøv at udtrykke dig følelesesladet.

Tabulatur(tabs)

E||---4-----5-----7-----|--2-----------------|--4-----5-----7-----|
B||------0-----0-----0--|-----0-----0-----0--|-----0-----0-----0--|
G||*--------------------|--------2-----------|--------------------|
D||*--2-----4-----6-----|--1-----------------|--2-----4-----6-----|
A||---------------------|--------------2-----|--------------------|
E||---------------------|--------------------|--------------------|

--2-----------------|--12-----11-----9-----|--7---------0----------|
-----0-----0-----0--|-------------------7--|-----9-------------10--|
--------2-----------|------9------9--------|---------------11------|
--1-----------------|--11-----9------7-----|--9-----11-------------|
--------------2-----|----------------------|-----------------------|
--------------------|----------------------|-----------------------|

--------------------|--0--------------||---3/-8p-7--0--2--3--|
--9--------7-----4--|-----------------||---0-----------4-----|
-----9--6--------2--|--1-------------*||*--------------2-----|
--9-----8-----------|--2-------------*||*--------------------|
--------------2-----|-----------------||---------------2-----|
--------------------|-------0---------||---0-----------------|

--0-----------------|-----12-----8---------|------------------2--|
-----1--0-----------|--0---------------10--|--7------------0-----|
-----2--0--2--0--2--|--0-------------------|--8------------------|
-----------4--2--4--|---------7------------|-----9h-10--9--------|
--------------------|---------------9------|---------------------|
--0-----------------|--0-------------------|--7------------------|

--3-----5-----7-----|--10p-8--7------------|--0-----2-----------|
-----0-----0-----0--|------------10--8--7--|-----0-----1--0-----|
--------------------|----------------------|-----0-----2-----2--|
--2-----4-----5-----|----------------------|-----------------1--|
--------------------|----------------------|--------------2-----|
--------------------|--0-------------------|--------------------|

-----------------||--4-----5-----7-----|--2-----------------|
--0--------------||-----0-----0-----0--|-----0-----0-----0--|
--0-------------*||--------------------|--------2-----------|
--2-------------*||--2-----4-----6-----|--1-----------------|
-----------------||--------------------|--------------2-----|
-------0---------||--------------------|--------------------|

--4-----5-----7-----|--2-----------------|--12-----11-----9-----|
-----0-----0-----0--|-----0-----0-----0--|-------------------7--|
--------------------|--------2-----------|------9------9--------|
--2-----4-----6-----|--1-----------------|--11-----9------7-----|
--------------------|--------------2-----|----------------------|
--------------------|--------------------|----------------------|

--7---------0----------|--------------------|--0-------------||
-----9-------------10--|--9--------7-----4--|----------------||
---------------11------|-----9--6--------2--|--1-------------||
--9-----11-------------|--9-----8-----------|--2-------------||
-----------------------|--------------2-----|----------------||
-----------------------|--------------------|-------0--------||

Facebook kommentarer