Masser af succes fingerspil strum og akkorder

Du er her

Kim Larsen's smukke sang Masser af succes om tristhedens dæmoner der besøger en på hotelværelset som ensom sangstjerne. I skarp kontrast til Det brune punktums: Jeg er for kendt til det her sted. Du får fingerspillet, akkorder og strum. Sangen huskes vel ikke mest for sit fingerspil som knapt nok kan høres på Gasolin udgivelsen Gas 5 fra 1975, med undtagelse af en meget detaljeret intro der tydeligt bevidner at Kim Larsen spiller en Dm akkord i en anden omvending. Hvis han spillede Dm i den første omvending så ville den nederste tone i akkorden være et F men man hører tydeligt at den nederste tone er et A, og det kan man nemt frembringe ved at tage et Am greb i 5. bånd med capo som så klinger som en Dm akkord.

Sådan spiller du: Masser af succes fingerspil strum og akkorder

Kim Larsen spiller fingerspillet i tonearten Dm med capo i 5. bånd. Selve fingerspillet er meget enkelt. Tommel spiller grundtone i hver akkord og fingrene spiller konstant på tredje, anden og første streng. Så det er et meget enkelt klassisk fingerspil han gør brug af og det bliver forklaret til fulde i den medfølgende video. Vi viser udover fingerspillet også strum/anslag og akkorder.
I videoen viser vi både fingerspillet med capo og uden capo. Vi viser også hvorfor det ikke anbefales at spille sangen i Dm uden capo. Se videoen for detaljer.

Akkorder

​Med capo i 5. bånd*
Vers

Am Dm G C Am E Am E E

Omkvæd

(E) F Am G C C E E F F Am Am

*) Spiller du med capo i 5. bånd spiller du i virkeligheden disse akkorder:
Uden capo: Dm-Gm-C-F-Dm-A-Dm-A Omkvæd: A-Bb-Dm-C-F-F-A-A-Bb-Bb-Dm-Dm

Akkorder i soloen
Første solo

Am Dm G C Am E Am E E
Am Dm G C Am E Am E E
Første solo spilles over to vers

Anden solo

Am Dm G C Am E Am E E
Am Dm G C Am E Am E E
F Am G C C E E F F Am Am
Anden solo spilles over to vers og et omkvæd
Masser af succes lektion

Pdf

It appears your Web browser is not configured to display PDF files. Download adobe Acrobat eller klik her for at downloade PDF-filen.

Vi siger stort tak til entertainer Adam Aldridge som synger vokalen til Masser af succes for os. Han optræder blandt andet som Kim Larsen imitator. Denne optræden er dog hans egen fortolkning af sangen. Hans sang har hjulpet os meget at demonstrere hvor man skal skifte akkord, og hvor fingerspillet ligger sammen med vokalen. Så kan bedre se og høre hvornår man skal skifte akkord sammen med teksten. En stor hjælp! Besøg gerne hans website på: www.adamaldridge.dk

masser af succes noder og tabs side 1
Masser af succes noder og tabs side 2

Tabulatur(tabs)

E ||----------0----------|-----------1----------|-----------3----------|
B ||-------1-----1-------|--------3-----3-------|--------0-----0-------|
G ||o---2-----------2----|-----2-----------2----|-----0-----------0----|
D ||o--------------------|--0-------------------|----------------------|
A ||-0-------------------|----------------------|----------------------|
E ||---------------------|----------------------|--3-------------------|


-----------0----------|-----------0----------|-----------0----------|
--------1-----1-------|--------1-----1-------|--------0-----0-------|
-----0-----------0----|-----2-----------2----|-----1-----------1----|
----------------------|----------------------|----------------------|
--3-------------------|--0-------------------|----------------------|
----------------------|----------------------|--0-------------------|


-----------0----------|-----------0----------|-----------0---------||
--------1-----1-------|--------0-----0-------|--------0-----0------||
-----2-----------2----|-----1-----------1----|-----1-----------1--o||
----------------------|----------------------|--------------------o||
--0-------------------|----------------------|---------------------||
----------------------|--0-------------------|--0------------------||


-----------1----------|-----------0----------|-----------3----------|
--------1-----1-------|--------1-----1-------|--------0-----0-------|
-----2-----------2----|-----2-----------2----|-----0-----------0----|
--3-------------------|----------------------|----------------------|
----------------------|--0-------------------|----------------------|
----------------------|----------------------|--3-------------------|


-----------0----------|-----------0----------|-----------0----------|
--------1-----1-------|--------1-----1-------|--------0-----0-------|
-----0-----------0----|-----0-----------0----|-----1-----------1----|
----------------------|----------------------|----------------------|
--3-------------------|--3-------------------|----------------------|
----------------------|----------------------|--0-------------------|


-----------0----------|-----------1----------|-----------1----------|
--------0-----0-------|--------1-----1-------|--------1-----1-------|
-----1-----------1----|-----2-----------2----|-----2-----------2----|
----------------------|--3-------------------|--3-------------------|
----------------------|----------------------|----------------------|
--0-------------------|----------------------|----------------------|


-----------0----------|-----------0----------||
--------1-----1-------|--------1-----1-------||
-----2-----------2----|-----2-----------2----||
----------------------|----------------------||
--0-------------------|--0-------------------||
----------------------|----------------------||
michael larsens billede

Sikke en god lære video, godt forklaret, alt er så detalieret og alle kan være med uden de store forvirringer,
Mange mange Tak ......

Facebook kommentarer

Taktart

3/4

Genre

Danske sange

Komponist

Kim Larsen

Spillestil

Klassisk guitar fingerspil

Toneart

Am

mp3

Forfatter

Fridrikur

Akkorder

​Med capo i 5. bånd* Vers Am Dm G C Am E Am E E Omkvæd (E) F Am G C C E E F F Am Am *) Spiller du med capo i 5. bånd spiller du i virkeligheden disse akkorder: Uden capo: Dm-Gm-C-F-Dm-A-Dm-A Omkvæd: A-Bb-Dm-C-F-F-A-A-Bb-Bb-Dm-Dm
Akkorder i soloen Første solo Am Dm G C Am E Am E E Am Dm G C Am E Am E E Første solo spilles over to vers Anden solo Am Dm G C Am E Am E E Am Dm G C Am E Am E E F Am G C C E E F F Am Am Anden solo spilles over to vers og et omkvæd

Strum

Ned - ned-op op-ned