My Home's Across The Smokey Mountains

Du er her

My Home's Across The Smokey Mountains er en traditionel sang som i det her tilfælde er baseret på Merle Travis' spillestil. Merle Travis f.1917 d. 1983 var en pioner inden for countryguitar og er blev imiteret af tusinder indenfor hans branche, lige fra Chet Atkins til Doc Watson, som ovenikøbet kaldte sin søn op efter ham. Merle Travis var dog beskeden og gav sine venner Mose Rager og Ike Everley (far til Everly Brothers brødrene), hans fars arbejdskolleager i en kulmine, æren for den specielle spillestil som er blevet døbt: Travis picking. Merle lærte at spille ved først at se Mose spille og derefter gå hjem og spille fra hukommelsen. Merle Travis var ikke blot en forfader og forbillede for mange han var også en utrolig teknisk dygtig guitarist, beviset for dette postulat kan høres på optagelser som: Walking The Strings og white heat, hvor Merle lader guitaren tale for sig. Til sidst skal også nævnes at Merle har skrevet og sunget kendte numre som: Smoke smoke that cigarette og Sixteen Tons.

Sådan spiller du: My Home's Across The Smokey Mountains

Denne melodi spilles udelukkende i de første positioner. Sværhedsgraden sidder derfor mest i højre hånd. Dette nummer er med andre ord et oplagt "finger picking" stykke. Merle Travis' spillestilen er baseret på en trefingret højrehånds teknik, hvor det vigtigste er at dæmpe bassen i højre hånd så den lyder som en kontrabas, og samtidig spille melodi med skiftevis pege og ringfinger. Det anbefales at downloade Guitar Pro udgaven af sangen, så du bedre kan se akkordskift.

Tabulatur(tabs)

C                                             D5 
E||--0---------|--0--------------3----|--0-------------------|
B||------------|----------------------|-------3----1---------|
G||------------|----------------------|-----------------2----|
D||-------2----|-------2---------2----|-------2---------0----|
A||--3---------|--3---------3---------|--3---------3---------|
E||------------|----------------------|----------------------|

C                                             G7 
----------------------|-----------------0----|----------------------|
--1-------------------|----------------------|--3--------------3----|
----------------------|--0-------------------|----------------------|
-------2---------2----|-------2---------2----|-------0---------0----|
--3---------3---------|--3---------3---------|----------------------|
----------------------|----------------------|--3---------3---------|

--0--------------0----|--3--------------0----|--3--------------3----|
-------3----1---------|----------------------|----------------------|
----------------------|----------------------|----------------------|
-------0---------0----|-------2---------2----|-------2---------2----|
----------------------|--3---------3---------|--3---------3---------|
--3---------3---------|----------------------|----------------------|

--3--------------3----|--3----0--------------|--0-------------------|
----------------------|------------3----1----|-----------------3----|
----------------------|----------------------|----------------------|
-------2---------2----|-------2---------2----|-------2---------2----|
--3---------3---------|--3---------3---------|--3---------3---------|
----------------------|----------------------|----------------------|

                        G7             C             G7 
----------------------|----------------------|--0-------------------|
--1---------1----1----|--3---------3----1----|-------3----1---------|
----------------------|----------------------|-----------------2----|
-------2---------2----|-------0---------2----|-------0---------0----|
--3---------3---------|----------------------|----------------------|
----------------------|--3---------3---------|--3---------3---------|

C                                             G7             Csus2 
------------0---------|--3-------------------|----------------------|
--1-------------------|-----------------1----|--3---------3----1----|
----------------------|----------------------|----------------------|
-------2---------2----|-------2---------2----|-------0---------0----|
--3---------3---------|--3---------3---------|----------------------|
----------------------|----------------------|--3---------3---------|

G7             D5       C 
--0-------------------|----------------------|-------------------||
-------3----1---------|--1-------------------|--1----------------||
-----------------2----|----------------------|-------------------||
-------0---------0----|-------2---------2----|-------------------||
----------------------|--3-------------------|--3----------------||
--3---------3---------|------------3---------|-------------------||

Facebook kommentarer