My Singing Bird

Du er her

En traditionel irsk melodi. Bemærk den specielle rytme. Melodien kører på bassen, og spilles i den besværlige F dur toneart, men da det kun er melodien du skal spille, går det nok.

Sådan spiller du: My Singing Bird

Spil melodien ytringsfuld.

Tabulatur(tabs)

E||--------|-----------------------|-----------------------|
B||--------|-----------------------|-----------------------|
G||--------|-----------------0--2--|--3------2--0-------0--|
D||--3--0--|---------0--3----------|-----------------3-----|
A||--------|--3--------------------|-----------------------|
E||--------|-----------------------|-----------------------|

------------------------|---------------------|-----------------------|
------------------------|---------------------|-----------------------|
--2--0------------------|---------------------|-----------------0--2--|
--------3--0------------|---------------3--0--|---------0--3----------|
--------------3------3--|--3------------------|--3--------------------|
------------------------|---------------------|-----------------------|

-----------------------|------------------------|---------------------|
-----------------------|------------------------|---------------------|
--3------2--0-------0--|--2--0------------------|---------------2--3--|
-----------------3-----|--------3--0------------|---------------------|
-----------------------|--------------3------3--|--3------------------|
-----------------------|------------------------|---------------------|

----------------------|----------------------|------------------------|
--1------1--3----1----|----------------------|------------------1-----|
----------------------|--3----2----0------2--|--0------0--0--2-----2--|
----------------------|----------------------|------------------------|
----------------------|----------------------|------------------------|
----------------------|----------------------|------------------------|

---------------------|-----------------------|-----------------------|
---------------------|-----------------------|-----------------------|
--0------------------|-----------------0--2--|--3------2--0-------0--|
---------------3--0--|---------0--3----------|-----------------3-----|
---------------------|--3--------------------|-----------------------|
---------------------|-----------------------|-----------------------|

------------------------|---------------||
------------------------|---------------||
--2--0------------------|---------------||
--------3--0------------|---------------||
--------------3------3--|--3------------||
------------------------|---------------||

Facebook kommentarer