Oh Papa

Du er her

Mississippi John Hurts f. 1893, d. 1966. På guitaren er MJH spillestil utrolig tilgængelig og pædagogisk opbygget. Han havde en utrolig solid tommelfinger basrytme kørende til alle sine arrangementer. MJH blev genopdaget af Tom Hoskins i 1963, da vedkommende rejste til Avalon for at finde manden som havde indspillet "Avalon my home" i 1928, og siden da nærmest havde været ukendt. MJH nye karriere varede kun i 3 år. Selv om MJH er pædagogisk og meget ortodosk i højre hånd så afspejler hans arrangementer en fantastisk oversigt over samtlige toner på gribebrædtet. Tag endelig ikke fejl... John Hurt spillede andet end første positions akkorder. Han havde dog en forkærlighed for at gribe mange af sine treklange på en doven "1. positions G" agtig måde, som han slidede op og ned af halsen. Oh Papa er en traditionel sang som lyder godt men som er nem at spille.

Sådan spiller du: Oh Papa

Igen anbefales det på det kraftigeste at lære bassen i højre hånd, spillet af tommelfingeren udenad. Start med at gribe en 1.pos G akkord, og spil på (6) og (4) skiftevis. Akkordmæssigt er (takt 7) D/F# , dvs et alm. D med F# i basen, det sværeste skift du kommer udfor i denne melodi som man næsten ikke kan tage fejl af. Du vil med tiden (hvis du er relativt nystartet med fingerspil) opdage at du vil genbruge mange af de idéer der er i denne sang på andre af dine arrangementer eller evt. soloer eller blot fingerspils kadancer. Nyd Oh Papa. P.S. Oh papa er IKKE = en cirkus melodi.

Tabulatur(tabs)

E||----------------------|----------------------|--3-------------------|
B||----------------------|----------------------|----------------------|
G||----------------------|----------------------|----------------------|
D||-------0---------0----|-------0---------0----|-------0---------0----|
A||----------------------|----------------------|----------------------|
E||--3---------3---------|--3---------3---------|--3---------3---------|

--0-------------------||--------------------------|-----------------------|
----------------------||------0----------0--------|---------------0-------|
------------0---------||*--3----------3--------0--|------------3----------|
-------0---------0----||*--------0----------0-----|-------0----------0----|
----------------------||--------------------------|-----------------------|
--3---------3---------||---3----------3-----------|--3---------3----------|

----------------------|-------0---------------|---------------3--------|
----------------------|------------0----------|---------------------0--|
--2-------------------|---------------2-------|--0---------------------|
-------0---------0----|-------0----------0----|-------0----------0-----|
----------------------|-----------------------|------------------------|
--2---------2---------|--2---------2----------|--3---------3-----------|

--3--------------------|----------------------|-------0---------------|
---------------0-------|----------------------|------------0----------|
------------3----------|--2-------------------|---------------2-------|
-------0----------0----|-------0---------0----|-------0----------0----|
-----------------------|----------------------|-----------------------|
--3---------3----------|--2---------2---------|--2---------2----------|

---------------3--------|--3--------------------||--3----------------||
---------------------0--|-----------------------||-------------------||
--0---------------------|----------------------*||-------------------||
-------0----------0-----|-------0---------0----*||-------------------||
------------------------|-----------------------||-------------------||
--3---------3-----------|--3---------3----------||--3----------------||

Facebook kommentarer