forbedring af højre hånds teknik - øvelse 5

Du er her

Sidste eksempel af 5 til forbedring af højre hånds teknik

E||--3-----------1-----------|--0-----------------------|
B||--------0-----------0-----|--------0-----3-----------|
G||-----0-----------0--------|-----0--------------0-----|
D||--------2--0-----------0--|-----------0-----0-----0--|
A||--------------------------|--------------------------|
E||--3-----------3-----3-----|--3-----3-----3-----3-----|
T T T T osv.

--------------------------|-----2-----2-----2-------|--------------------|
--3-----------------------|--------------------1----|--0--------1--------|
-----0--0-----0-----------|--0----------------------|--------------------|
-----------0-----0--0-----|-------------------------|--------------------|
-----------------------0--|--------------0--0--3----|--0--------3--------|
--3-----3-----3-----3-----|--3--0--0--0-------------|--------------------|

------------------|------------------||
------------------|------------------||
------------------|------------------||
------------------|------------------||
------------------|------------------||

Spilletips

Dette eksempel præsenterer dig for en udfodring, du skal med andre ord koncentrere dig meget for at bevare et roligt tempo i bassen. Mississippi John Hurt kunne upåvirkeligt spille den ene mellemtone og synkopering efter den anden og stadig lyde klippestabil med sin dundrede bas, bluesens metronom! Så lyt til nogle af hans indspilninger og lyt nøje efter bassen, læg mærke til hvor stabil den er, det kan du f.eks høre på Lonesome Valley og Spike Driver Blues.

Spillestil

Fingerspils spillestilen

Genre

Fingerpicking øvelser