Packingtons Pound

Du er her

Packingtons pound er et af uttalige stykker som er skrevet af en anonym komponist. Hvordan det er gået til er ikke nemt at vide, mærkværdigt at komponisterne ikke skrev deres navn på partiturerne. Det kan være at de har glemt det eller at navnet har været for utydeligt. Et andet eksempel på et værk af en ukendt komponist er Romance som er næsten lige så kendt som Fur Elise, ihvertfald blandt os guitarister. Informationer om det her stykke er sparsomme, men den er sjov og pædagogisk at spille.

Sådan spiller du: Packingtons Pound

Packingtons Pound er skrevet i det 16 århundredes England så den må gerne spilles med et "Shakespears" præg. Prøv at spille majestætisk og højtideligt, nærmest som om du spillede på en lut, så far du den rigtige fornemmelse af melodien frem. Ved første øjekast ser den simpel ud med de relativt enkle førstepositions akkorder men den er en del sværere i højre hånd, så forbered dig på at bruge lidt tid på den for at få den rigtige klang frem.

Tabulatur(tabs)

E||-----------------|-----------------|-----------------|------------------|
B||---------0--1----|--0--------------|---------0--1----|--0---------1--3--|
G||--2--------------|--1--------------|--2--------------|--1---------------|
D||--2--------------|-------2---------|--2--------------|-------2----------|
A||--0--------------|------------0----|--0--------------|------------------|
E||-----------------|-----------------|-----------------|------------------|

--0------1--0----|-----------------|-----------------|---------------|
-----------------|--3----0---------|-------1----0----|---------------|
-----------------|------------0----|--2---------1----|--2------------|
-----------------|-----------------|--2--------------|--2------------|
--3--------------|-----------------|--0--------------|--0------------|
-----------------|--3--------------|------------0----|---------------|

-------------------|-----------------|-------------------|------------------|
-----------0--1----|--0--------------|-----0--1--3--1----|--0---------1--3--|
--2--1--2----------|--1--------------|--2----------------|--1---------------|
-------------------|-------2---------|-------------------|-------2----------|
--0----------------|-----------------|--0----------------|------------------|
-------------------|------------0----|-------------------|--0---------------|

--0--1--0-----0-----|-----------------|------------------|---------------|
-----------3-----1--|--3----0---------|-----0--1----0----|---------------|
--------------------|------------0----|--2----------1----|--2------------|
--------------------|-----------------|--2---------------|--2------------|
--3-----------------|-----------------|--0---------------|--0------------|
--------------------|--3--------------|-------------0----|---------------|

--0----3----2----|--0-------------|--0----3----2----|--0------------|
--0--------------|--0--------0----|--0--------------|--0------------|
-----------------|----------------|-----------------|---------------|
-----------------|----------------|-----------------|---------------|
------------2----|----------------|------------2----|---------------|
--0--------------|--0-------------|--0--------------|--0------------|

--0----3----2----|--0----3----2----|--0----3----2----|--0-------------|
--0--------------|--0--------------|--0--------------|--0--------0----|
-----------------|-----------------|-----------------|----------------|
-----------------|-----------------|-----------------|----------------|
------------2----|------------2----|------------2----|----------------|
--0--------------|--0--------------|--0--------------|--0-------------|

--0------1--0----|-----------------|-----------------|-----------------|
-----------------|--3----0---------|--1------3--1----|--0--------------|
-----------------|------------0----|-----------------|--1--------------|
-----------------|-----------------|-----------------|-------2---------|
--3--------------|-----------------|--0--------------|-----------------|
-----------------|--3--------------|-----------------|------------0----|

--0------1--0----|-----------------|-----------------|---------------|
-----------------|--3----0---------|-------1----0----|---------------|
-----------------|------------0----|--2---------1----|--2------------|
-----------------|-----------------|--2--------------|--2------------|
--3--------------|-----------------|--0--------------|--0------------|
-----------------|--3--------------|------------0----|---------------|

--0-----0--1--0----|-----------------|-------------------|-----------------|
-----3-------------|--3----0---------|--1--0--1--3--1----|--0--------------|
-------------------|------------0----|-------------------|--1--------------|
-------------------|-----------------|-------------------|-------2---------|
--3----------------|-----------------|--0----------------|-----------------|
-------------------|--3--------------|-------------------|------------0----|

--0-----0--1--0----|-----------------|------------------|---------------||
-----3-------------|--3----0---------|-----0--1----0----|---------------||
-------------------|------------0----|--2----------1----|--2------------||
-------------------|-----------------|--2---------------|---------------||
--3----------------|-----------------|--0---------------|--0------------||
-------------------|--3--------------|-------------0----|---------------||

Facebook kommentarer