Pianomand fingerspil

Du er her

Vi har fokus på det som Kim Larsen's højre hånd laver i den smukke sang Pianomand. Du får højre hånds fingerspils mønster med en C akkord som udgangspunkt. Når du har lært fingerspillet kan du nemt genbruge det på de andre akkorder i sangen.

Sådan spiller du: Pianomand fingerspil

Som du kan se på tabulaturen spiller højre hånd følgende. Tommel på 5. og 4. streng mens langfinger spiller på 1. streng og pegefinger spiller på 2. streng. Når du spiller 2. streng tilføjer du lillefinger i venstre hånd på 3. bånd.

Tabulatur(tabs)

E |--------0-------------------------------------------|
B |-----------------3-----1-----------------1----------|
G |-----------------------------------0----------------|
D |--------2-----------2-----------2-----------2-------|
A |--3-----------3-----------3-----------3-------------|
E |----------------------------------------------------|



--------0-------------------------------------------|
-----------------3-----1-----------------1----------|
-----------0-----------------------0----------------|
--------2-----------2-----------2-----------2-------|
--3-----------3-----------3-----------3-------------|
----------------------------------------------------|



--------0-------------------------------------------|-------||
-----------------3-----1-----------------1----------|-------||
-----------0-----------------------0h-2-------------|-------||
--------2-----------2-----------2-----------0--2h---|-------||
--3-----------3-----------3-----------3-------------|--3----||
----------------------------------------------------|-------||

Pdf

It appears your Web browser is not configured to display PDF files. Download adobe Acrobat eller klik her for at downloade PDF-filen.

Brian Bergs billede

Hej.

Har du resten af akkorderne og er det 100% samme fremgangsmetode som ved C akkorden, eller skifter det lidt?
Du kan evt. skrive på e-mail.
brianberg85@hotmail.com

Fridrikurs billede

Tak for din kommentar Brian.
Jeg vil hermed opfordret lave en ny lektion med resten af fingerspillet.
Hermed kan vi hjælpe andre der sidder med samme problem som dig med at komme videre.
Det var dog helt bevidst at jeg fokuserede på fingerspillet i højre hånd og ikke på akkorderne, da det er dette der bærer sangen.
Jeg vil også opdatere denne lektion med et akkord skema.
Følg med på siden. 

Facebook kommentarer