Plain G Blues

Du er her

Plain G Blues som er en traditionel blues melodi eller snarere et akkompagnement i G-dur er baseret på Blind Lemon Jeffersons f. 1897, d. 1929 spillestil. Et af de største symboler på tidlig blues musik. Plain G blues er velegnet som en forøvelse til den sværere Easy Rider Blues som vi allerede har gennemgået i en tidligere lektion.

Sådan spiller du: Plain G Blues

Det er bassen som er den altafgørende faktor i dette riff. Jeg kalder det riff fordi det er bygget op omkring den samme idé fra start til slut. I venstre hånd går det nemt med almindelige første positions akkordskift bortset fra et enkelt skift til D7 som er et "C7" greb taget i 3 positon/bånd.

Tabulatur(tabs)

Plain G Blues                                   

     G         G5                                                          

E||---------------0-------|--3-------3-------3----|---------------0-------|
B||-------0----3----------|------------------0----|-------0----3----------|
G||--3--------------------|-----------------------|--3--------------------|
D||-------0----------0----|-------0----------0----|-------0----------0----|
A||-----------------------|-----------------------|-----------------------|
E||--3---------3----------|--3----------3---------|--3---------3----------|

  G7                      C7                                            

--1-------1------------|---------------0-------|--3-------3------------|
-----------------------|-------1----3----------|-----------------------|
-----------------------|--3--------------------|-----------------------|
-------0----------0----|-------2----------2----|-------2----------2----|
-----------------------|--3---------3----------|--3----------3---------|
--3----------3---------|-----------------------|-----------------------|

  G                                                 D7                    

------------------------|------------------------|-----------------------|
------------------------|----------0-------------|-------3-------3-------|
------------------------|--0----3-----0----------|------------5----------|
-------------0--2--0----|------------------------|-------4----------4----|
-------1--2-------------|----------------3--4----|--5---------5----------|
--3---------------------|------------------------|-----------------------|

  C7                      G                             D7          

-----------------------|-------3----1-----------|-----------------||
-------1-------1-------|---------------3--1-----|----------3------||
------------3----------|---------------------3--|--0-------5------||
-------2----------2----|------------------------|-----------------||
--3---------3----------|------------------------|-------5---------||
-----------------------|--3----3----3-----3-----|--3--------------||

Facebook kommentarer