Sikken voldsom trængsel og alarm - melodi fingerspil og akkorder

Du er her

Sikken voldsom trængsel og alarm er en hyggelig og letgenkendelig julemelodi, især pga. gentagelsen af ordenene: jul, jul, jul. Skrevet af Emil Hornemann i 1850

Sådan spiller du: Sikken voldsom trængsel og alarm - melodi fingerspil og akkorder

Melodien kører i en 3/4 taktart og har en del akkordskift. Tip: Spil ikke den sidste akkord i takten men brug istedet bastonen til akkorden. F.eks ved skfit til A fra D med en rytme der siger: 1-2-3. Her spiller Du: D-strum-D-strum-A-bas. For at spille melodien er det en god ide at indøve en D-dur skala og spille hver tone som en ottendel. Pas på med ikke at spille de ottendelene for hurtigt. Spiller du melodien (du kan også vælge kun at spille akkorder) så kan du med fordel spille med skfitevis tommel og fingrene. Se hvordan og hør og se meget mere i videoen.

Pdf

It appears your Web browser is not configured to display PDF files. Download adobe Acrobat eller klik her for at downloade PDF-filen.

Tabulatur(tabs)

E |----------------------|-------------|----------------------|-------------|
B |----------------------|--------3----|----------------------|-------------|
G |-----------2--0-------|--2----------|-----------2--0-------|-------------|
D |--0--2--4--------2----|-----4-------|--0--2--4--------2----|--4--2--0----|
A |----------------------|-------------|----------------------|-------------|
E |----------------------|-------------|----------------------|-------------|


----------------------|-------------|----------------------|-------------|
----------------------|--------3----|--2-------------------|-------------|
-----------2--0-------|--2----------|-----4--2-----1-------|--2----------|
--0--2--4--------2----|-----4-------|-----------2-----2----|-----2-------|
----------------------|-------------|----------------------|--------0----|
----------------------|-------------|----------------------|-------------|


----------------------|-------------|----------------------|-------------|
----------------------|-----3-------|----------------------|-----3-------|
--0--------4--2-------|--4-----2----|--0--------4--2--0----|--------2----|
-----4--2--------5----|-------------|-----4--2-------------|--4----------|
----------------------|-------------|----------------------|-------------|
----------------------|-------------|----------------------|-------------|


----------------------|-------------|----------------------|
----------------------|-------------|-----3----------------|
-----2--0-------------|--0--2--4----|--2--------2----------|
--4--------4--2--0----|-------------|--------4--------4----|
----------------------|-------------|--------------5L-5----|
----------------------|-------------|----------------------|


----------------------------------------|-------------|-------------|
----------------------------------------|-------------|--3--2-------|
--2-------------------------------------|--------2----|--------4----|
--------------2h-------4----------------|--0--4-------|-------------|
--------------------------5-------------|-------------|-------------|
----------------------------------------|-------------|-------------|


----------------------|-------------|-------||
----------------------|-------------|-------||
--2--2--4--4----------|-------------|-------||
--------------5--5----|--4h-5--2----|--0----||
----------------------|-------------|-------||
----------------------|-------------|-------||

Facebook kommentarer

Taktart

3/4

Genre

Julesange

Komponist

Emil Hornemann

Spillestil

Fingerspil spillestilen

Toneart

D

Forfatter

Fridrikur