Silver Sand Rag

Du er her

Endnu en af de gode gamle ragtime melodier. Denne her er ikke lige så svær som Entertainer, men den har dog nogle hurdler skal overvindes før den kan lyde flydende, som ragtime musik jo gerne skal gøre.

Sådan spiller du: Silver Sand Rag

Tommelfinger spiller tonerne på bas-strengene, mens mellemfinger og pegefinger spiller de diskante. Derudover spiller tommelfingeren også på (3) dvs. Gstr, og IKKE pege og mellemfinger på (3) og (1) str, når de bliver anslået sammen, det giver en bedre klang, og et meget bedre flow i spillet, og er desuden også en af de største forskelle imellem klassisk og rytmisk fingerspil.. Prøv at øve melodien i et roligt tempo og få alle tonerne med, mens du koncentrer dig om at gribe akkorderne i venstre hånd. Du bør ikke kigge på højre hånd mens du spiller den skal nærmest spille af sig selv, er du i tvivl, så kig på vores fingerspilsøvelser i menuen, god fornøjelse!

Akkorder

Kadancen er:
C-E7-A-A7 A A7 D7 -G7
G G7 G G7 C -D7 G7 C
G# -C C G#7 -C A7
D7 -C7-G

Tabulatur(tabs)

    C                        E7                       A                       
E||-------0--------0-------|-------0--------0-------|-------5--------5--------|
B||----------1-------------|----------3-------------|----------2-----------2--|
G||-------0-----------0----|-------1-----------1----|-------2-----------2-----|
D||------------------------|------------------------|-------------------------|
A||--3----------3----------|--2----------2----------|--0----------0-----------|
E||------------------------|------------------------|-------------------------|

       A7   A    A7      D7                                             
--5----3----5----3----|-------2--------2--------|-------2--------------|
----------------------|----------1-----------1--|----------------------|
-------2---------2----|-------2-----------2-----|-------2--------------|
----------------------|--0----------------------|--0-------------------|
--0---------0---------|-------------0-----------|------------0----1----|
----------------------|-------------------------|----------------------|

  G7                        G    G7   G    G7      C                      
-------1--------1--------|--3----1----3----1----|-------0--------0-------|
----------0-----------0--|----------------------|----------1-------------|
-------0-----------0-----|-------0---------0----|-------0-----------0----|
-------------------------|----------------------|------------------------|
--2----------------------|----------------------|--3----------3----------|
-------------3-----------|--3---------3---------|------------------------|

  E7                       A                              A7   A    A7    
-------0--------0-------|-------5--------5--------|--5----3----5----3----|
----------3-------------|----------2-----------2--|----------------------|
-------1-----------1----|-------2-----------2-----|-------2---------2----|
------------------------|-------------------------|----------------------|
--2----------2----------|--0----------0-----------|--0---------0---------|
------------------------|-------------------------|----------------------|

       D7                  G7                       C          G#          
-------2--------2-------|--1-------------1-------|------------------------|
----------1-------------|----------0-------------|-------1--------1-------|
-------2-----------2----|--0---------------------|----------0-------------|
--0---------------------|------------------------|-------2-----------1----|
-------------0----------|-------------0-----2----|--3---------------------|
------------------------|-------3----------------|-------------4----------|

  C                    C                         G#7                     
--------------------|--------0--------0-------|--------2--------2-------|
--1--------1--------|-----1--------1----------|-----1--------1----------|
--------------------|--0--------0--------0----|--1--------1--------1----|
--------------------|-------------------------|-------------------------|
--3--------3--------|-------------------------|-------------------------|
--------------------|-------------------------|-------------------------|

  C                         A7                        D7                      
--------0--------0-------|--------3--------3-------|-------2--------2--------|
-----1--------1----------|-----2--------2----------|----------1-----------1--|
--0--------0--------0----|--2--------2--------2----|-------2-----------2-----|
-------------------------|-------------------------|--0----------------------|
-------------------------|-------------------------|-------------0-----------|
-------------------------|-------------------------|-------------------------|

                         G7                        G                      
-------2--------------|-------1--------1--------|--3----1----3----1-----||
----------------------|----------0-----------0--|-----------------------||
-------2--------------|-------0-----------0-----|-------0---------0----*||
--0-------------------|-------------------------|----------------------*||
------------0----1----|--2----------------------|-----------------------||
----------------------|-------------3-----------|--3---------3----------||

 

Pdf

It appears your Web browser is not configured to display PDF files. Download adobe Acrobat eller klik her for at downloade PDF-filen.

Akkorder

Kadancen er: C-E7-A-A7 A A7 D7 -G7 G G7 G G7 C -D7 G7 C G# -C C G#7 -C A7 D7 -C7-G

Facebook kommentarer