Spider Rag Blues

Du er her

Mit arrangement af en kendt børnesang. Jeg kalder den Spider Rag Blues da den er blevet lidt blueset og i tempo minder om ragtime.

Sådan spiller du: Spider Rag Blues

Spil palm muted i bassen som på dansk er dæmpet bas i højre hånd med tommelfinger. Vigtigt er at du holder akkorderne og kun bevæger fingrene som giver melodi samt også skiftevis skifter fra (5) til (6) streng med 3. dog uden at skifte akkord, men kun denne ene finger. Bemærk hvordan du nærmest tager en C akkord på 6., 7., og 5. bånd og bruger den samme ide som i 1. bånd, blot med andre toner.

Se video med Spider Rag Blues

Tabulatur(tabs)

                                   
     C                                                                
     PM                        PM   PM   PM      PM   PM   PM         
     Q                         Q    Q    Q       Q    Q    Q    Q     
E||-------------------------------------------|----------------------|
B||-------------------------------------------|----------------------|
G||-------------------------------------------|-----------------0----|
D||----------------------------2---------2----|-------2--------------|
A||--3----------------------------------------|--3-------------------|
E||---------------------------------3---------|------------3---------|


                                                 G7(no5)                 
  PM   PM   PM   PM      PM    PM   PM   PM      PM      PM   PM   PM    
  Q    Q    Q    Q       E  E  Q    Q    Q       Q       Q    Q    Q     
----------------------|--0-----L----0----L----|--------------------0----|
--1----1----1----3----|-----1--L--------------|--3-------3----3---------|
----------------------|-----------------------|-------------------------|
-------2---------2----|--------2----L----2----|----------3---------3----|
--3-------------------|--3--------------------|-------------------------|
------------3---------|-------------3---------|--3------------3---------|


  C                                                                   
  PM   PM   PM   PM      PM   PM   PM           PM    PM   PM   PM    
  Q    Q    Q    Q       Q    Q    Q    Q       E  E  Q    Q    Q     
----------------------|--0----L----0----1----|--3-----L----3----L----|
--1----L----1----L----|----------------------|-----1-------L---------|
----------------------|----------------------|-----------------------|
-------2---------2----|-------2---------0----|--------2---------2----|
--3-------------------|--3-------------------|--3--------------------|
------------3---------|------------3---------|-------------3---------|


  G7                     C                      F                     
  PM   PM   PM   PM      PM   PM   PM           PM    PM   PM   PM    
  Q    Q    Q    Q       Q    Q    Q    Q       E  E  Q    Q    Q     
--1----0----1----3----|--0--------------L----|--8-----L----8----8----|
----------------------|----------------------|-----6-------L---------|
----------------------|----------------------|-----------------------|
-------2---------2----|-------2---------x----|--------7----L----7----|
----------------------|--3-------------------|--8--------------------|
--3---------3---------|------------3---------|-------------8---------|


  E                       D                       C                    
  PM    PM   PM   PM      PM    PM   PM   PM      PM   PM   PM   PM    
  E  E  Q    Q    Q       E  E  Q    Q    Q       Q    Q    Q    Q     
--7-----L----7----L----|--5-----L----5----5----|--3--------------L----|
-----5-------L---------|-----3-------L---------|----------------------|
-----------------------|-----------------------|----------------------|
--------6----L----6----|--------4----L----4----|-------2---------2----|
--7--------------------|--5--------------------|--3-------------------|
-------------7---------|-------------5---------|------------3---------|


                                                 G7(no5)                 
  PM   PM   PM   PM      PM    PM   PM   PM      PM      PM   PM   PM    
  Q    Q    Q    Q       E  E  Q    Q    Q       Q       Q    Q    Q     
----------------------|--0-----L----0----L----|--------------------0----|
--1----1----1----3----|-----1-------L---------|--3-------3----3---------|
----------------------|-----------------------|-------------------------|
-------2---------2----|--------2----L----2----|----------3---------3----|
--3-------------------|--3--------------------|-------------------------|
------------3---------|-------------3---------|--3------------3---------|


  C                                         
  PM   PM   PM   PM      PM                 
  Q    Q    Q    Q       W                  
----------------------|-------------------||
--1--------------L----|-------------------||
----------------------|-------------------||
-------2---------2----|-------------------||
--3-------------------|--3----------------||
------------3---------|-------------------||

Pdf

It appears your Web browser is not configured to display PDF files. Download adobe Acrobat eller klik her for at downloade PDF-filen.

Facebook kommentarer