Stop den lille kænguru (arpeggio)

Du er her

Stop den lille kænguru er en fornøjelig dansk børnesang, som vi b.la. kender med Birthe Wilke og Bjørn Tidmand. Oprindeligt hedder den Tie me kangaroo down af Rolf Harris. I denne udgave spiller du akkompagnements delen. Dvs. at du kun spiller rytme og akkorder og ikke melodien.

Sådan spiller du: Stop den lille kænguru (arpeggio)

I denne udgave kører vi arpeggio løb på minibarré akkorder. Ned og opslag anbefales. I tabulaturen kan du tydeligt se hvilke akkorder du skal spille og hvilke toner. Bemærk at D, G, og A tages med minnibarré for at få den specielle arpeggio lyd frem. Spilles med fordel på en elguitar med clean lyd eller western guiar.

Stop den lille kænguro noder og tabs

Tabulatur(tabs)

E ||----------2----------------|-----------3----------------|
B ||-------3--------3----------|--------3--------3----------|
G ||o2-----------------2-------|--4-----------------4-------|
D ||o--------------------------|----------------------------|
A ||---------------------------|----------------------------|
E ||---------------------------|----------------------------|

-----------5----------------|-----------5---------------|||
--------5--------5----------|--------7--------7---------|||
--6-----------------6-------|--7-----------------7-----o|||
----------------------------|--------------------------o|||
----------------------------|---------------------------|||
----------------------------|---------------------------|||

Pdf

It appears your Web browser is not configured to display PDF files. Download adobe Acrobat eller klik her for at downloade PDF-filen.

Facebook kommentarer