Stop den lille kænguru melodistemme

Du er her

Her får du melodistemmen til Stop den lille kænguru. Du kan vælge at bruge vores arpeggio lektion til samme melodi som rytmisk opbakning når du har lært at spille melodien. Bare rolig den er ikke så svær. Du får video, guitar pro fil, ren ascii tab tekst og pdf fil :)

Sådan spiller du: Stop den lille kænguru melodistemme

Du kan vælge at gribe en D akkord og spille tone for tone og løfte fingrene når du skal spille de løse strenge eller du kan flytte fingrene ved hvert toneskift. Resultatet er det samme. Eneste lille hurdle er at du udover at skulle spille i 2. bånd også skal spille på 5. og 7. bånd. Se video hvor vi gennemgår melodien takt for takt.

Tabulatur(tabs)

E ||----------2L-2--0----------|-----------0L-0-------------|
B ||-------3-----------3-------|--0-------------------------|
G ||o2-------------------------|----------------------------|
D ||o--------------------------|----------------------------|
A ||---------------------------|----------------------------|
E ||---------------------------|----------------------------|

-----------0L-0--3--7-------|--5-------------|-----------2L-2--0----------|
--------2-------------------|----------------|--------3-----------3-------|
--2-------------------------|----------------|--2-------------------------|
----------------------------|----------------|----------------------------|
----------------------------|----------------|----------------------------|
----------------------------|----------------|----------------------------|

-----------0L-0-------------|-----------0L-0-------------|---------------|||
--0-------------------------|--------2--------3--2-------|--3------------|||
----------------------------|--2-------------------------|--------------o|||
----------------------------|----------------------------|--------------o|||
----------------------------|----------------------------|---------------|||
----------------------------|----------------------------|---------------|||

Pdf

It appears your Web browser is not configured to display PDF files. Download adobe Acrobat eller klik her for at downloade PDF-filen.

Facebook kommentarer