Victory Rag

Du er her

En festlig melodi ragtime melodi, som Maybelle Carter indspillede på harpe, og som Doc Watson transkriberede efterfølgende og spillede på akustisk guitar. Denne udgave er baseret på hans fænomenale spil. Sangen findes på albummet Home Again indspillet i 1966 som var Doc Watsons fjerde album.
Med på guitar var hans søn Merle Watson, som havde lært sig selv guitar som 17 årig og indspillede pladen: Doc Watson and Son i 1965 hvor han stadig kun var 17 år.

Sådan spiller du: Victory Rag

Melodien er i C dur, og kører mellem C-F-C-D7-G-C-F-og C i versene, men i omkvædet ændrer den karakter og bliver der i melodien leget med ledetonen op til grundtonen, som skaber en ganske nydelig spænding, som så bliver udløst ved at gå tilbage til C og hovedtemaet. Ang. fingerspil er det fornuftigt at køre med bas og to fingre, gerne I og M. Udover omkvædet er melodien ligetil, og lyder godt i sig selv.
Der er noget magisk over denne melodi så godt er den skruet sammen, kan sammenlignes med Freight Train i sin enkelthed.
God fornøjelse med at spille den.

Tabulatur(tabs)

E||---------------------||---0--------3------------|-----------0-------------|
B||---------------------||------1------------------|-----------------3-------|
G||---------------------||*------------------------|--0h-1-------------------|
D||---------------------||*--------2----------2----|--------2-----------2----|
A||-----------0----2----||---3---------------------|-------------------------|
E||------3--------------||---------------3---------|--0-----------0----------|

-------------------------|-----------------------|-----------------0-------|
--1--------3h-1----------|-------1---------------|--3--------3-------------|
-----2-----------2-------|--0------------0-------|-----5-------------------|
--------3-----------3----|-------2----------2----|--------4-----------4----|
-------------------------|--3--------------------|--5----------------------|
--1-----------1----------|------------3----------|--------------5----------|

-----------3-----0-------|-------------------------|------------------------||
--3----------------------|--1-------------1--------|--1---------------------||
-----0-------------------|----------0h-2--------0--|---------------0-------*||
--------0-----------0----|-------2-----------3-----|-------2----------2----*||
-------------------------|--3----------------------|--3---------------------||
--3-----------3----------|-------------1-----------|------------3-----------||

--------7--------7-------|--8--------7-------------|--5--------3h-2-----------|
-----------0-------------|-----0-----------0-------|-----2-----------5--------|
*------------------------|-------------------------|-----------------------2--|
*-------6-----------6----|--------6-----------6----|--------2-----------2-----|
--------------7----------|--------------7----------|--0-----------------------|
---0---------------------|--0----------------------|--------------0-----------|

-----------------------|----------------0-------|--5--------0-------------|
---------------2-------|----------7-------------|-----7-----------7-------|
-----------------------|-------5-----------5----|--------5----------------|
-------2----------2----|--0---------------------|--0-----------------5----|
--0--------------------|-------------0----------|--------------0----------|
------------0----------|------------------------|-------------------------|

--3--------1h-0-----------|-------------------------||--0----------------||
-----0-----------3--------|-------0-------0---------||--1----------------||
-----------------------0--|---------------------0--*||--0----------------||
--------0-----------0-----|-------0----------0-----*||--2----------------||
--------------------------|-------------------------||--3----------------||
--3-----------3-----------|--3---------3------------||-------------------||

Facebook kommentarer