West Coast Blues

Du er her

West Coast Blues er et af de sværeste blues/ragtime sange at mestre. Blind Blake kunne non chalant spille denne perle i et lyntempo uden besvær og alligevel få det til at svinge og få os lyttere at rokke med ved fødderne.Stefan Grossman har udtalt at han brugte et helt år på at opøve West Coast Blues. Det er ikke en udtalelse fra en hvilken som helst guitarist, men en af de mest anerkendte i branchen, så han ved hvad han snakker om. Det viser bare hvor krævende en Blind Blake øvelse er, HP Lange udtaler at man skal holde det meget ved lige, så han er gået fra det igen.

Sådan spiller du: West Coast Blues

Ja så skal vi det med spilletips, uha uha, lad mig se... Prøv stille og roligt at indøve akkordskiftene, husk at sværhedsgraden sidder i højre hånd, så skynd dig at lære venstre hånds løb og akkorder først, og studér så højre hånd og især bassen bagefter. Giv dig tid og lad være med at respektere melodien alt for meget, den er stadig ragtime, og ragtime skal have en letheds følelse over sig det er ikke Johann Sebastian Bach vi spiller her. Så sørg først og fremmest for at få det til at svinge

Tabulatur(tabs)

E||-------|--------0-----0--3-------|-------5--5-----3-------|
B||-------|--1--1--1-----1----------|-------2--2-----2-------|
G||-------|--0--0-------------------|------------------------|
D||-------|-------------------------|-------2-----------2----|
A||-------|--3-----3-----3-----3----|--0----------0----------|
E||--3----|-----------3-------------|------------------------|

--2-----2----1--1-----0--|-----3--2--1--0---------|--0----0-----0-----0-----|
--1--1--1----0--0-----1--|--------------1---------|--1----1-----1-----1-----|
-------------------------|------------------------|-------------------------|
--------0----------0-----|------------------------|-------------2-----------|
-------------------------|--3-----0-----3---------|--3----3-----------3-----|
--2----------3-----------|-------------------3----|----------3-----3-----3--|

-----------0-----0--------|-------5----3--3-------|--5----3--5-----3-------|
--0-----0--0-----3--------|-------2----2----------|--2----2--2-----2-------|
--1-----0-----------------|-----------------------|------------------------|
--------------2-----------|-------2----------2----|-------2-----------2----|
--2-----2-----------------|--0---------0----------|--0----------0----------|
-----4--------------0--0--|-----------------------|------------------------|

--2--2-------0----1----|--2---------------------|--------------0--3--------|
--1--1-----------------|--1--1------------------|--------0--3-----------3--|
-----------------------|--------2---------------|-----3--------------------|
--------0--------------|--------0-----0---------|--------0-----------0-----|
-------------0---------|------------------------|--------------------------|
--2---------------3----|--2--------2-------2----|--3-----------3-----------|

--0-----0--3-----0--------|-----------0-----0--------|
-----3--------------------|--1-----1--1-----1--------|
--------------------------|--0-----0--0-----0--------|
--------0-----------0-----|--------------2-----------|
--------------------------|--3-----3-----------3-----|
--3-----------3--------0--|-----3-----------------0--|

-----------0-----0--------|-------5----3--3-------|--5----3--5-----3-------|
--0-----0--0-----3--------|-------2----2----------|--2----2--2-----2-------|
--1-----1-----------------|-----------------------|------------------------|
--------------2-----------|-------2----------2----|-------2-----------2----|
--2-----2-----------------|--0---------0----------|--0----------0----------|
-----4--------------0--0--|-----------------------|------------------------|

--2-----2-----0--2-------|--1--1--------0--3--------|-------------------------|
--1-----1--------1-------|--0--0--------0-----------|--1----------1-----------|
-----2-------------------|-----------3--------------|--0----------1-----------|
--------0-----0----------|--------0-----------0-----|----------1--------0-----|
-------------------------|--------------------------|--3----0--------0--------|
--2--------2--------2----|--3-----------3--------3--|----------------------3--|

--------0--3-----0-------|--3----2----1----||---------0----------------|
--1--1-----------1-------|-----------------||---1-----1-----------1----|
--0----------------------|-----------------||*--0-----0----------------|
--------2-----------2----|------------0----||*--------------2-----2----|
--3-----------3----------|--3----0---------||---3-----3--------3-------|
-------------------------|-----------------||------3-----3-------------|

----------------------|-------------------------|----------------------|
-------3b---1---------|--3b-1-----3b----1-------|-------3b---1---------|
----------------------|-------------------------|----------------------|
-------2---------2----|--------2-----------2----|-------3---------3----|
--3---------3---------|--3-----------3----------|----------------------|
----------------------|-------------------------|--1---------1---------|

-------------------------|----------------------|-------------------------|
--3b-1-----3b----1-------|-------3b---1---------|--3b-1-----3b----1-------|
-------------------------|----------------------|-------------------------|
--------3-----------3----|-------2---------2----|--------2-----------2----|
-------------------------|--3---------3---------|--3-----------3----------|
--1-----------1----------|----------------------|-------------------------|

----------------------|--------------------------|-------------------------|
-------3b---1---------|--3b-1-----3b----1--------|-----1-------------------|
----------------------|--------------------------|-----0-------------------|
-----------------3----|--------3-----------3-----|-----------2-----0-------|
-------3--------------|-----------------------3--|--2-----3-----2----------|
--1---------1---------|--1-----------1-----------|--------------------0----|

-------5----3--3-------|--3-----2-----0--2-------|--3--1-----------3--------|
-------2----2----------|--2-----1--------1-------|--0--0--------0-----------|
-----------------------|-----2-------------------|-----------3--------------|
-------2----------2----|--------0-----0----------|--------0-----------0-----|
--0---------0----------|-------------------------|--------------------------|
-----------------------|--2--------2--------2----|--3-----------3--------3--|

-------------------------|-------3----2----1-----||-------------------|
--1----------1-----------|--1----0----4----3-----||--1----------------|
--0----------1-----------|--0-------------------*||--0----------------|
----------1--------0-----|----------------------*||--2----------------|
--3----0--------0--------|--3---------0----2-----||--3----------------|
----------------------3--|-------3---------------||-------------------|

------------------||
------------------||
------------------||
------------------||
------------------||
------------------||

Facebook kommentarer