Worried Man Blues

Du er her

Woody Guthrie f. 1912, d.1967, er kendt som folkesanger. Men hans guitarspil er så country som det overhovedet kan blive.WG var først og fremmest politisk fortaler, komponist og sanger, men også en hæderlig guitarist. Han oplevede "the Great Depression" og andre ulyksaligheder i sin opvækst og begyndte at skrive sange om det. WG kunne synge en folkesang som ingen anden. En af disse sange var Worried Man Blues som også er indspillet af: Big Bill Broonzey, Carter Family og Kingston Trio er en blues sang, selv om den er "adaptet" til enhver genre.

Sådan spiller du: Worried Man Blues

Tommelfinger spiller c, e, c, e ved C-dur, og: f, f, f, f, ved F-dur, dvs. (5), (4), og (6) (4). Melodien spilles i mellem bastonerne og sammen med disse. Det kan være svært at spille (4) og (3) sammen ved sidste C i første takt, men ellers burde melodien køre som smurt. Prøv at spille den stille og roligt og ikke for hurtigt. Blues dækker mest over teksten i sangen, den skal egentlig spilles som en typisk country sang. Melodien kommer ikke så meget frem i dette arrangement, men husk det er en øvelse i fingerspil og ikke et mesterværk.

Tabulatur(tabs)

Arr. Harry Taussig
E||-----------------------|-----------------------|--0-------0-------------|
B||-----------------------|--1-------1------------|----------------3-------|
G||--0-------0-------2----|-----------------------|------------------------|
D||-------2----------2----|-------2----------2----|-------2----------------|
A||--3----------3---------|--3----------3---------|--3----------3-----2----|
E||-----------------------|-----------------------|------------------------|


------------------------|-------------------------|-----------------------|
--1-------------1-------|----------------0-----1--|-----------------------|
----------0-------------|----------2--------------|-----------------------|
-------2-----------2----|--3----3-----------3-----|-------3-------2-------|
--3----------3----------|-------------------------|------------------3----|
------------------------|--1----------1-----------|--1---------1----------|

------------------------|----------------------|-----------------------|
--1-------1-------------|----------------------|-----------------------|
----------------2-------|--0-------------------|--0-------0-------2----|
-------3-----------3----|-------2---------2----|-------2----------2----|
------------------------|--3-------------------|--3----------3---------|
--1----------1----------|------------3---------|-----------------------|

-----------------------|-----0-----0-------------|------------------------|
--1------------1-------|-----------------3-------|--1-------0-----1-------|
-----------------------|-------------------------|------------------------|
-------2----------2----|--------2-----------2----|-------2-----------2----|
--3---------3----------|--3-----------3----------|--3----------3----------|
-----------------------|-------------------------|------------------------|


----------------------0--|-------------------------|-----------------------|
--3-------------3--------|-----3-----1-----0-------|--1--------------------|
----------0--------------|-------------------------|---------------0-------|
-------0-----------0-----|--------0-----------0----|-------2----------2----|
-------------------------|-------------------------|--3--------------------|
--3----------3-----------|--3-----------3----------|------------3----------|


-------------------||
--1----------------||
-------------------||
-------------------||
--3----------------||
-------------------||

Facebook kommentarer